ISO-10303-21;
HEADER;
FILE_DESCRIPTION (( 'STEP AP203' ),
    '1' );
FILE_NAME ('259.step',
    '2021-09-03T07:21:36',
    ( '' ),
    ( '' ),
    'SwSTEP 2.0',
    'SolidWorks 2019',
    '' );
FILE_SCHEMA (( 'CONFIG_CONTROL_DESIGN' ));
ENDSEC;

DATA;
#1 = CARTESIAN_POINT ( 'NONE',  ( 1.040461438975253740E-13, 0.5749999999999962919, 29.80000000000000071 ) ) ;
#2 = DIRECTION ( 'NONE',  ( 3.491481338843133355E-15, -1.224646799147353207E-16, 1.000000000000000000 ) ) ;
#3 = CALENDAR_DATE ( 2021, 3, 9 ) ;
#4 = FACE_OUTER_BOUND ( 'NONE', #299, .T. ) ;
#5 = ADVANCED_FACE ( 'NONE', ( #312 ), #64, .T. ) ;
#6 = ORIENTED_EDGE ( 'NONE', *, *, #220, .T. ) ;
#7 = AXIS2_PLACEMENT_3D ( 'NONE', #322, #120, #142 ) ;
#8 = CARTESIAN_POINT ( 'NONE',  ( 0.0000000000000000000, 0.0000000000000000000, 0.0000000000000000000 ) ) ;
#9 = DATE_TIME_ROLE ( 'creation_date' ) ;
#10 = ORIENTED_EDGE ( 'NONE', *, *, #99, .T. ) ;
#11 = LINE ( 'NONE', #118, #249 ) ;
#12 = CARTESIAN_POINT ( 'NONE',  ( 1.276706033134742646E-15, 0.5749999999999962919, 0.3454948559408488329 ) ) ;
#13 = CARTESIAN_POINT ( 'NONE',  ( 1.206288842183769857E-15, -0.5749999999999962919, 0.3454948559408487219 ) ) ;
#14 = DIRECTION ( 'NONE',  ( 0.0000000000000000000, 1.000000000000000000, 0.0000000000000000000 ) ) ;
#15 = ADVANCED_FACE ( 'NONE', ( #4 ), #139, .F. ) ;
#16 = CIRCLE ( 'NONE', #53, 0.5749999999999972911 ) ;
#17 = EDGE_LOOP ( 'NONE', ( #20, #265, #216, #156 ) ) ;
#18 = AXIS2_PLACEMENT_3D ( 'NONE', #230, #71, #144 ) ;
#19 = APPLICATION_PROTOCOL_DEFINITION ( 'international standard', 'config_control_design', 1994, #126 ) ;
#20 = ORIENTED_EDGE ( 'NONE', *, *, #182, .T. ) ;
#21 = DIRECTION ( 'NONE',  ( 0.0000000000000000000, 1.000000000000000000, 0.0000000000000000000 ) ) ;
#22 = ORIENTED_EDGE ( 'NONE', *, *, #255, .T. ) ;
#23 = LINE ( 'NONE', #333, #269 ) ;
#24 = APPROVAL ( #267, 'UNSPECIFIED' ) ;
#25 = DIRECTION ( 'NONE',  ( -3.491481338843133355E-15, 1.224646799147353207E-16, -1.000000000000000000 ) ) ;
#26 = PRODUCT ( '259', '259', '', ( #109 ) ) ;
#27 =( NAMED_UNIT ( * ) SI_UNIT ( $, .STERADIAN. ) SOLID_ANGLE_UNIT ( ) );
#28 = APPROVAL_PERSON_ORGANIZATION ( #170, #24, #167 ) ;
#29 = LOCAL_TIME ( 9, 21, 36.00000000000000000, #73 ) ;
#30 = VERTEX_POINT ( 'NONE', #114 ) ;
#31 = APPROVAL_DATE_TIME ( #110, #330 ) ;
#32 = PRODUCT_RELATED_PRODUCT_CATEGORY ( 'detail', '', ( #26 ) ) ;
#33 = ORIENTED_EDGE ( 'NONE', *, *, #132, .T. ) ;
#34 = ORIENTED_EDGE ( 'NONE', *, *, #151, .T. ) ;
#35 = CARTESIAN_POINT ( 'NONE',  ( 1.206288842183770054E-15, -4.231091694498363380E-17, 0.3454948559408487774 ) ) ;
#36 = AXIS2_PLACEMENT_3D ( 'NONE', #159, #202, #141 ) ;
#37 = DIRECTION ( 'NONE',  ( 1.798245827342160317E-15, -0.8571673007021098911, 0.5150380749100582634 ) ) ;
#38 = ORIENTED_EDGE ( 'NONE', *, *, #255, .F. ) ;
#39 = SHAPE_DEFINITION_REPRESENTATION ( #273, #45 ) ;
#40 = CARTESIAN_POINT ( 'NONE',  ( 1.047444401652940007E-13, 2.812049592490927934E-33, 30.00000000000000000 ) ) ;
#41 = CALENDAR_DATE ( 2021, 3, 9 ) ;
#42 = CARTESIAN_POINT ( 'NONE',  ( 2.793185071074506684E-14, -9.797174393178825657E-16, 8.000000000000000000 ) ) ;
#43 = EDGE_LOOP ( 'NONE', ( #165, #306, #149, #178 ) ) ;
#44 = VECTOR ( 'NONE', #291, 999.9999999999998863 ) ;
#45 = ADVANCED_BREP_SHAPE_REPRESENTATION ( '259', ( #172, #62, #337 ), #293 ) ;
#46 = DATE_AND_TIME ( #145, #136 ) ;
#47 = EDGE_CURVE ( 'NONE', #90, #54, #89, .T. ) ;
#48 = CARTESIAN_POINT ( 'NONE',  ( 1.044534627543691745E-13, -0.3750000000000037192, 30.00000000000000000 ) ) ;
#49 = VERTEX_POINT ( 'NONE', #256 ) ;
#50 = APPROVAL_PERSON_ORGANIZATION ( #234, #330, #308 ) ;
#51 = CC_DESIGN_SECURITY_CLASSIFICATION ( #314, ( #179 ) ) ;
#52 = EDGE_CURVE ( 'NONE', #282, #54, #23, .T. ) ;
#53 = AXIS2_PLACEMENT_3D ( 'NONE', #42, #243, #250 ) ;
#54 = VERTEX_POINT ( 'NONE', #111 ) ;
#55 = CC_DESIGN_PERSON_AND_ORGANIZATION_ASSIGNMENT ( #125, #117, ( #314 ) ) ;
#56 = DIRECTION ( 'NONE',  ( 3.349443381543040427E-31, 1.000000000000000000, 9.427844978134881830E-17 ) ) ;
#57 = PERSON ( 'UNSPECIFIED', 'UNSPECIFIED', 'UNSPECIFIED', ('UNSPECIFIED'), ('UNSPECIFIED'), ('UNSPECIFIED') ) ;
#58 = PERSON_AND_ORGANIZATION_ROLE ( 'design_owner' ) ;
#59 = CIRCLE ( 'NONE', #258, 0.5749999999999962919 ) ;
#60 = CC_DESIGN_APPROVAL ( #24, ( #179 ) ) ;
#61 = ORIENTED_EDGE ( 'NONE', *, *, #263, .T. ) ;
#62 = MANIFOLD_SOLID_BREP ( 'Corps-Déplacer/Copier1[2]', #94 ) ;
#63 = ADVANCED_FACE ( 'NONE', ( #213 ), #309, .T. ) ;
#64 = CYLINDRICAL_SURFACE ( 'NONE', #214, 0.5749999999999987343 ) ;
#65 = ORIENTED_EDGE ( 'NONE', *, *, #163, .F. ) ;
#66 = FACE_OUTER_BOUND ( 'NONE', #201, .T. ) ;
#67 = VERTEX_POINT ( 'NONE', #48 ) ;
#68 = FACE_OUTER_BOUND ( 'NONE', #43, .T. ) ;
#69 = AXIS2_PLACEMENT_3D ( 'NONE', #169, #95, #92 ) ;
#70 = ORIENTED_EDGE ( 'NONE', *, *, #163, .T. ) ;
#71 = DIRECTION ( 'NONE',  ( -3.491481338843133355E-15, 1.224646799147353207E-16, -1.000000000000000000 ) ) ;
#72 = DIRECTION ( 'NONE',  ( -3.491481338843133355E-15, 1.224646799147353207E-16, -1.000000000000000000 ) ) ;
#73 = COORDINATED_UNIVERSAL_TIME_OFFSET ( 1, 0, .AHEAD. ) ;
#74 = CC_DESIGN_PERSON_AND_ORGANIZATION_ASSIGNMENT ( #129, #245, ( #179 ) ) ;
#75 = CYLINDRICAL_SURFACE ( 'NONE', #313, 0.5749999999999967359 ) ;
#76 = DIRECTION ( 'NONE',  ( -3.491481338843133355E-15, 1.224646799147353207E-16, -1.000000000000000000 ) ) ;
#77 = AXIS2_PLACEMENT_3D ( 'NONE', #147, #72, #171 ) ;
#78 = ORIENTED_EDGE ( 'NONE', *, *, #103, .T. ) ;
#79 = CARTESIAN_POINT ( 'NONE',  ( 1.206288842183770054E-15, -4.231091694498363380E-17, 0.3454948559408487774 ) ) ;
#80 = EDGE_CURVE ( 'NONE', #119, #160, #154, .T. ) ;
#81 = DESIGN_CONTEXT ( 'detailed design', #199, 'design' ) ;
#82 = CARTESIAN_POINT ( 'NONE',  ( 2.793185071074506684E-14, -9.797174393178825657E-16, 8.000000000000000000 ) ) ;
#83 = ORIENTED_EDGE ( 'NONE', *, *, #99, .F. ) ;
#84 = AXIS2_PLACEMENT_3D ( 'NONE', #253, #25, #284 ) ;
#85 = CARTESIAN_POINT ( 'NONE',  ( 1.047903644202620232E-13, -0.3750000000000037192, 30.00000000000000000 ) ) ;
#86 = ORIENTED_EDGE ( 'NONE', *, *, #209, .F. ) ;
#87 = PERSON_AND_ORGANIZATION ( #57, #195 ) ;
#88 = PERSON_AND_ORGANIZATION ( #57, #195 ) ;
#89 = CIRCLE ( 'NONE', #320, 0.5749999999999962919 ) ;
#90 = VERTEX_POINT ( 'NONE', #13 ) ;
#91 = ADVANCED_FACE ( 'NONE', ( #66 ), #150, .T. ) ;
#92 = DIRECTION ( 'NONE',  ( 0.0000000000000000000, 1.000000000000000000, 0.0000000000000000000 ) ) ;
#93 = PERSON_AND_ORGANIZATION_ROLE ( 'design_supplier' ) ;
#94 = CLOSED_SHELL ( 'NONE', ( #325, #177, #235, #204, #63 ) ) ;
#95 = DIRECTION ( 'NONE',  ( -3.491481338843133355E-15, 1.224646799147353207E-16, -1.000000000000000000 ) ) ;
#96 = CONICAL_SURFACE ( 'NONE', #288, 0.3750000000000000000, 0.7853981633974512766 ) ;
#97 = DIRECTION ( 'NONE',  ( 0.0000000000000000000, 1.000000000000000000, 0.0000000000000000000 ) ) ;
#98 = CARTESIAN_POINT ( 'NONE',  ( 0.0000000000000000000, 0.0000000000000000000, 0.0000000000000000000 ) ) ;
#99 = EDGE_CURVE ( 'NONE', #49, #278, #11, .T. ) ;
#100 = CARTESIAN_POINT ( 'NONE',  ( 1.047444401652940007E-13, -3.673940397442059178E-15, 30.00000000000000000 ) ) ;
#101 = CIRCLE ( 'NONE', #283, 0.5749999999999972911 ) ;
#102 = PERSON_AND_ORGANIZATION ( #57, #195 ) ;
#103 = EDGE_CURVE ( 'NONE', #188, #54, #266, .T. ) ;
#104 = CIRCLE ( 'NONE', #69, 0.5749999999999999556 ) ;
#105 = CARTESIAN_POINT ( 'NONE',  ( 7.041719095097217278E-17, -0.5749999999999967359, -7.041719095097265349E-17 ) ) ;
#106 = PRODUCT_DEFINITION ( 'UNKNOWN', '', #179, #81 ) ;
#107 = LINE ( 'NONE', #155, #302 ) ;
#108 = DIRECTION ( 'NONE',  ( -3.491481338843133355E-15, 1.224646799147353207E-16, -1.000000000000000000 ) ) ;
#109 = MECHANICAL_CONTEXT ( 'NONE', #126, 'mechanical' ) ;
#110 = DATE_AND_TIME ( #3, #238 ) ;
#111 = CARTESIAN_POINT ( 'NONE',  ( 1.276706033134742646E-15, 0.5749999999999962919, 0.3454948559408488329 ) ) ;
#112 = COORDINATED_UNIVERSAL_TIME_OFFSET ( 1, 0, .AHEAD. ) ;
#113 = CONICAL_SURFACE ( 'NONE', #161, 0.5749999999999962919, 1.029744258676649649 ) ;
#114 = CARTESIAN_POINT ( 'NONE',  ( 6.605941449508601453E-14, -0.5750000000000037303, 29.80000000000000071 ) ) ;
#115 = CC_DESIGN_DATE_AND_TIME_ASSIGNMENT ( #46, #9, ( #106 ) ) ;
#116 = DIRECTION ( 'NONE',  ( -2.468850131082257455E-15, 0.7071067811865497932, -0.7071067811865453523 ) ) ;
#117 = PERSON_AND_ORGANIZATION_ROLE ( 'classification_officer' ) ;
#118 = CARTESIAN_POINT ( 'NONE',  ( 1.047444401652940007E-13, 0.3749999999999963363, 30.00000000000000000 ) ) ;
#119 = VERTEX_POINT ( 'NONE', #228 ) ;
#120 = DIRECTION ( 'NONE',  ( -3.491481338843133355E-15, 1.224646799147353207E-16, -1.000000000000000000 ) ) ;
#121 = VECTOR ( 'NONE', #271, 1000.000000000000000 ) ;
#122 = DIRECTION ( 'NONE',  ( -3.491481338843133355E-15, 1.224646799147353207E-16, -1.000000000000000000 ) ) ;
#123 = ADVANCED_FACE ( 'NONE', ( #225 ), #96, .T. ) ;
#124 = ORIENTED_EDGE ( 'NONE', *, *, #80, .T. ) ;
#125 = PERSON_AND_ORGANIZATION ( #57, #195 ) ;
#126 = APPLICATION_CONTEXT ( 'configuration controlled 3d designs of mechanical parts and assemblies' ) ;
#127 = LINE ( 'NONE', #196, #121 ) ;
#128 = ORIENTED_EDGE ( 'NONE', *, *, #220, .F. ) ;
#129 = PERSON_AND_ORGANIZATION ( #57, #195 ) ;
#130 = ORIENTED_EDGE ( 'NONE', *, *, #263, .F. ) ;
#131 = CC_DESIGN_PERSON_AND_ORGANIZATION_ASSIGNMENT ( #87, #58, ( #26 ) ) ;
#132 = EDGE_CURVE ( 'NONE', #54, #90, #59, .T. ) ;
#133 = CIRCLE ( 'NONE', #18, 0.3750000000000000000 ) ;
#134 = LINE ( 'NONE', #85, #140 ) ;
#135 = CARTESIAN_POINT ( 'NONE',  ( 2.793185071074506684E-14, 0.5749999999999962919, 8.000000000000000000 ) ) ;
#136 = LOCAL_TIME ( 9, 21, 36.00000000000000000, #112 ) ;
#137 = LINE ( 'NONE', #105, #326 ) ;
#138 = ORIENTED_EDGE ( 'NONE', *, *, #259, .F. ) ;
#139 = PLANE ( 'NONE',  #227 ) ;
#140 = VECTOR ( 'NONE', #186, 1000.000000000000114 ) ;
#141 = DIRECTION ( 'NONE',  ( -4.275831445896958607E-31, -1.000000000000000000, -1.224646799147353207E-16 ) ) ;
#142 = DIRECTION ( 'NONE',  ( 4.275831445896958607E-31, 1.000000000000000000, 1.224646799147353207E-16 ) ) ;
#143 = APPROVAL_DATE_TIME ( #317, #244 ) ;
#144 = DIRECTION ( 'NONE',  ( 0.0000000000000000000, 1.000000000000000000, 0.0000000000000000000 ) ) ;
#145 = CALENDAR_DATE ( 2021, 3, 9 ) ;
#146 = VECTOR ( 'NONE', #37, 1000.000000000000000 ) ;
#147 = CARTESIAN_POINT ( 'NONE',  ( 2.793185071074506684E-14, -9.797174393178825657E-16, 8.000000000000000000 ) ) ;
#148 = DATE_AND_TIME ( #194, #180 ) ;
#149 = ORIENTED_EDGE ( 'NONE', *, *, #52, .T. ) ;
#150 = CYLINDRICAL_SURFACE ( 'NONE', #7, 0.5749999999999987343 ) ;
#151 = EDGE_CURVE ( 'NONE', #188, #90, #297, .T. ) ;
#152 = CARTESIAN_POINT ( 'NONE',  ( 1.463948696741536402E-14, -0.5749999999999981792, 8.000000000000000000 ) ) ;
#153 = ADVANCED_FACE ( 'NONE', ( #292 ), #173, .F. ) ;
#154 = CIRCLE ( 'NONE', #77, 0.5749999999999972911 ) ;
#155 = CARTESIAN_POINT ( 'NONE',  ( 7.041719095097240697E-17, -0.5749999999999987343, -7.041719095097288768E-17 ) ) ;
#156 = ORIENTED_EDGE ( 'NONE', *, *, #52, .F. ) ;
#157 = DIRECTION ( 'NONE',  ( -4.275831445896958607E-31, -1.000000000000000000, -1.224646799147353207E-16 ) ) ;
#158 = CARTESIAN_POINT ( 'NONE',  ( 2.793185071074506684E-14, -9.797174393178825657E-16, 8.000000000000000000 ) ) ;
#159 = CARTESIAN_POINT ( 'NONE',  ( 2.793185071074506684E-14, 4.311809375152805727E-33, 8.000000000000000000 ) ) ;
#160 = VERTEX_POINT ( 'NONE', #268 ) ;
#161 = AXIS2_PLACEMENT_3D ( 'NONE', #79, #215, #240 ) ;
#162 = PERSON_AND_ORGANIZATION_ROLE ( 'creator' ) ;
#163 = EDGE_CURVE ( 'NONE', #30, #278, #190, .T. ) ;
#164 = ORIENTED_EDGE ( 'NONE', *, *, #275, .T. ) ;
#165 = ORIENTED_EDGE ( 'NONE', *, *, #290, .F. ) ;
#166 = DIRECTION ( 'NONE',  ( -3.491481338843133355E-15, 1.224646799147353207E-16, -1.000000000000000000 ) ) ;
#167 = APPROVAL_ROLE ( '' ) ;
#168 = AXIS2_PLACEMENT_3D ( 'NONE', #206, #76, #237 ) ;
#169 = CARTESIAN_POINT ( 'NONE',  ( 1.040461438975253740E-13, -3.649447461459112464E-15, 29.80000000000000071 ) ) ;
#170 = PERSON_AND_ORGANIZATION ( #57, #195 ) ;
#171 = DIRECTION ( 'NONE',  ( 0.0000000000000000000, 1.000000000000000000, 0.0000000000000000000 ) ) ;
#172 = MANIFOLD_SOLID_BREP ( 'Corps-Déplacer/Copier1[1]', #335 ) ;
#173 = PLANE ( 'NONE',  #174 ) ;
#174 = AXIS2_PLACEMENT_3D ( 'NONE', #40, #166, #198 ) ;
#175 = DIRECTION ( 'NONE',  ( 4.275831445896958607E-31, 1.000000000000000000, 1.224646799147353207E-16 ) ) ;
#176 = COORDINATED_UNIVERSAL_TIME_OFFSET ( 1, 0, .AHEAD. ) ;
#177 = ADVANCED_FACE ( 'NONE', ( #262 ), #205, .T. ) ;
#178 = ORIENTED_EDGE ( 'NONE', *, *, #47, .F. ) ;
#179 = PRODUCT_DEFINITION_FORMATION_WITH_SPECIFIED_SOURCE ( 'ANY', '', #26, .NOT_KNOWN. ) ;
#180 = LOCAL_TIME ( 9, 21, 36.00000000000000000, #176 ) ;
#181 = EDGE_LOOP ( 'NONE', ( #277, #22, #130, #289 ) ) ;
#182 = EDGE_CURVE ( 'NONE', #282, #319, #16, .T. ) ;
#183 = CYLINDRICAL_SURFACE ( 'NONE', #168, 0.5749999999999967359 ) ;
#184 =( NAMED_UNIT ( * ) PLANE_ANGLE_UNIT ( ) SI_UNIT ( $, .RADIAN. ) );
#185 = CONICAL_SURFACE ( 'NONE', #84, 0.3750000000000000000, 0.7853981633974512766 ) ;
#186 = DIRECTION ( 'NONE',  ( -2.382254525458708792E-15, -0.7071067811865495711, -0.7071067811865455743 ) ) ;
#187 = EDGE_LOOP ( 'NONE', ( #260, #193, #10, #65 ) ) ;
#188 = VERTEX_POINT ( 'NONE', #98 ) ;
#189 = DIRECTION ( 'NONE',  ( -3.491481338843133355E-15, 1.224646799147353207E-16, -1.000000000000000000 ) ) ;
#190 = CIRCLE ( 'NONE', #329, 0.5749999999999999556 ) ;
#191 = DIRECTION ( 'NONE',  ( -3.491481338843133355E-15, 1.224646799147353207E-16, -1.000000000000000000 ) ) ;
#192 = DIRECTION ( 'NONE',  ( 3.349443381543040427E-31, 1.000000000000000000, 9.427844978134881830E-17 ) ) ;
#193 = ORIENTED_EDGE ( 'NONE', *, *, #231, .T. ) ;
#194 = CALENDAR_DATE ( 2021, 3, 9 ) ;
#195 = ORGANIZATION ( 'UNSPECIFIED', 'UNSPECIFIED', '' ) ;
#196 = CARTESIAN_POINT ( 'NONE',  ( 2.458603081390745637E-31, 0.5749999999999987343, 7.041719095097265349E-17 ) ) ;
#197 = CC_DESIGN_PERSON_AND_ORGANIZATION_ASSIGNMENT ( #272, #93, ( #179 ) ) ;
#198 = DIRECTION ( 'NONE',  ( 4.275831445896958607E-31, 1.000000000000000000, 1.224646799147353207E-16 ) ) ;
#199 = APPLICATION_CONTEXT ( 'configuration controlled 3d designs of mechanical parts and assemblies' ) ;
#200 = COORDINATED_UNIVERSAL_TIME_OFFSET ( 1, 0, .AHEAD. ) ;
#201 = EDGE_LOOP ( 'NONE', ( #38, #70, #218, #328 ) ) ;
#202 = DIRECTION ( 'NONE',  ( 3.491481338843133355E-15, -1.224646799147353207E-16, 1.000000000000000000 ) ) ;
#203 = DATE_AND_TIME ( #224, #210 ) ;
#204 = ADVANCED_FACE ( 'NONE', ( #68 ), #75, .T. ) ;
#205 = CONICAL_SURFACE ( 'NONE', #233, 0.5749999999999962919, 1.029744258676649649 ) ;
#206 = CARTESIAN_POINT ( 'NONE',  ( 0.0000000000000000000, 0.0000000000000000000, 0.0000000000000000000 ) ) ;
#207 = ORIENTED_EDGE ( 'NONE', *, *, #231, .F. ) ;
#208 = AXIS2_PLACEMENT_3D ( 'NONE', #247, #324, #321 ) ;
#209 = EDGE_CURVE ( 'NONE', #278, #30, #104, .T. ) ;
#210 = LOCAL_TIME ( 9, 21, 36.00000000000000000, #200 ) ;
#211 = FACE_OUTER_BOUND ( 'NONE', #17, .T. ) ;
#212 = EDGE_CURVE ( 'NONE', #278, #160, #127, .T. ) ;
#213 = FACE_OUTER_BOUND ( 'NONE', #315, .T. ) ;
#214 = AXIS2_PLACEMENT_3D ( 'NONE', #261, #236, #311 ) ;
#215 = DIRECTION ( 'NONE',  ( 3.491481338843133355E-15, -1.224646799147353207E-16, 1.000000000000000000 ) ) ;
#216 = ORIENTED_EDGE ( 'NONE', *, *, #132, .F. ) ;
#217 = EDGE_LOOP ( 'NONE', ( #128, #207 ) ) ;
#218 = ORIENTED_EDGE ( 'NONE', *, *, #212, .T. ) ;
#219 = ORIENTED_EDGE ( 'NONE', *, *, #103, .F. ) ;
#220 = EDGE_CURVE ( 'NONE', #49, #67, #133, .T. ) ;
#221 = CIRCLE ( 'NONE', #208, 0.3750000000000000000 ) ;
#222 = CARTESIAN_POINT ( 'NONE',  ( 1.206288842183770054E-15, -4.231091694498363380E-17, 0.3454948559408487774 ) ) ;
#223 = DIRECTION ( 'NONE',  ( -3.491481338843133355E-15, 1.224646799147353207E-16, -1.000000000000000000 ) ) ;
#224 = CALENDAR_DATE ( 2021, 3, 9 ) ;
#225 = FACE_OUTER_BOUND ( 'NONE', #187, .T. ) ;
#226 = DATE_TIME_ROLE ( 'classification_date' ) ;
#227 = AXIS2_PLACEMENT_3D ( 'NONE', #241, #2, #157 ) ;
#228 = CARTESIAN_POINT ( 'NONE',  ( 6.605941449508614074E-14, -0.5749999999999982903, 8.000000000000000000 ) ) ;
#229 = CARTESIAN_POINT ( 'NONE',  ( 1.040461438975253740E-13, -3.649447461459112464E-15, 29.80000000000000071 ) ) ;
#230 = CARTESIAN_POINT ( 'NONE',  ( 1.047444401652940007E-13, -3.673940397442059178E-15, 30.00000000000000000 ) ) ;
#231 = EDGE_CURVE ( 'NONE', #67, #49, #221, .T. ) ;
#232 = DIRECTION ( 'NONE',  ( -3.491481338843133355E-15, 1.224646799147353207E-16, -1.000000000000000000 ) ) ;
#233 = AXIS2_PLACEMENT_3D ( 'NONE', #35, #246, #294 ) ;
#234 = PERSON_AND_ORGANIZATION ( #57, #195 ) ;
#235 = ADVANCED_FACE ( 'NONE', ( #264 ), #113, .T. ) ;
#236 = DIRECTION ( 'NONE',  ( -3.491481338843133355E-15, 1.224646799147353207E-16, -1.000000000000000000 ) ) ;
#237 = DIRECTION ( 'NONE',  ( 4.275831445896958607E-31, 1.000000000000000000, 1.224646799147353207E-16 ) ) ;
#238 = LOCAL_TIME ( 9, 21, 36.00000000000000000, #281 ) ;
#239 = APPROVAL_PERSON_ORGANIZATION ( #102, #244, #248 ) ;
#240 = DIRECTION ( 'NONE',  ( -3.349443381543040427E-31, -1.000000000000000000, -9.427844978134881830E-17 ) ) ;
#241 = CARTESIAN_POINT ( 'NONE',  ( 2.793185071074506684E-14, 4.311809375152805727E-33, 8.000000000000000000 ) ) ;
#242 = AXIS2_PLACEMENT_3D ( 'NONE', #82, #304, #332 ) ;
#243 = DIRECTION ( 'NONE',  ( -3.491481338843133355E-15, 1.224646799147353207E-16, -1.000000000000000000 ) ) ;
#244 = APPROVAL ( #298, 'UNSPECIFIED' ) ;
#245 = PERSON_AND_ORGANIZATION_ROLE ( 'creator' ) ;
#246 = DIRECTION ( 'NONE',  ( 3.491481338843133355E-15, -1.224646799147353207E-16, 1.000000000000000000 ) ) ;
#247 = CARTESIAN_POINT ( 'NONE',  ( 1.047444401652940007E-13, -3.673940397442059178E-15, 30.00000000000000000 ) ) ;
#248 = APPROVAL_ROLE ( '' ) ;
#249 = VECTOR ( 'NONE', #116, 1000.000000000000114 ) ;
#250 = DIRECTION ( 'NONE',  ( 0.0000000000000000000, 1.000000000000000000, 0.0000000000000000000 ) ) ;
#251 = CARTESIAN_POINT ( 'NONE',  ( 1.206288842183770054E-15, -4.231091694498363380E-17, 0.3454948559408487774 ) ) ;
#252 = CIRCLE ( 'NONE', #242, 0.5749999999999972911 ) ;
#253 = CARTESIAN_POINT ( 'NONE',  ( 1.047444401652940007E-13, -3.673940397442059178E-15, 30.00000000000000000 ) ) ;
#254 = EDGE_LOOP ( 'NONE', ( #219, #34, #296 ) ) ;
#255 = EDGE_CURVE ( 'NONE', #30, #119, #107, .T. ) ;
#256 = CARTESIAN_POINT ( 'NONE',  ( 1.047444401652940007E-13, 0.3749999999999963363, 30.00000000000000000 ) ) ;
#257 = APPLICATION_PROTOCOL_DEFINITION ( 'international standard', 'config_control_design', 1994, #199 ) ;
#258 = AXIS2_PLACEMENT_3D ( 'NONE', #251, #223, #192 ) ;
#259 = EDGE_CURVE ( 'NONE', #319, #282, #252, .T. ) ;
#260 = ORIENTED_EDGE ( 'NONE', *, *, #275, .F. ) ;
#261 = CARTESIAN_POINT ( 'NONE',  ( 0.0000000000000000000, 0.0000000000000000000, 0.0000000000000000000 ) ) ;
#262 = FACE_OUTER_BOUND ( 'NONE', #323, .T. ) ;
#263 = EDGE_CURVE ( 'NONE', #160, #119, #101, .T. ) ;
#264 = FACE_OUTER_BOUND ( 'NONE', #254, .T. ) ;
#265 = ORIENTED_EDGE ( 'NONE', *, *, #290, .T. ) ;
#266 = LINE ( 'NONE', #12, #44 ) ;
#267 = APPROVAL_STATUS ( 'not_yet_approved' ) ;
#268 = CARTESIAN_POINT ( 'NONE',  ( 2.793185071074506684E-14, 0.5749999999999962919, 8.000000000000000000 ) ) ;
#269 = VECTOR ( 'NONE', #108, 1000.000000000000000 ) ;
#270 = CC_DESIGN_PERSON_AND_ORGANIZATION_ASSIGNMENT ( #88, #162, ( #106 ) ) ;
#271 = DIRECTION ( 'NONE',  ( -3.491481338843133355E-15, 1.224646799147353207E-16, -1.000000000000000000 ) ) ;
#272 = PERSON_AND_ORGANIZATION ( #57, #195 ) ;
#273 = PRODUCT_DEFINITION_SHAPE ( 'NONE', 'NONE',  #106 ) ;
#274 = DIRECTION ( 'NONE',  ( -3.491481338843133355E-15, 1.224646799147353207E-16, -1.000000000000000000 ) ) ;
#275 = EDGE_CURVE ( 'NONE', #67, #30, #134, .T. ) ;
#276 = CC_DESIGN_APPROVAL ( #330, ( #106 ) ) ;
#277 = ORIENTED_EDGE ( 'NONE', *, *, #209, .T. ) ;
#278 = VERTEX_POINT ( 'NONE', #1 ) ;
#279 = ADVANCED_FACE ( 'NONE', ( #280 ), #185, .T. ) ;
#280 = FACE_OUTER_BOUND ( 'NONE', #327, .T. ) ;
#281 = COORDINATED_UNIVERSAL_TIME_OFFSET ( 1, 0, .AHEAD. ) ;
#282 = VERTEX_POINT ( 'NONE', #135 ) ;
#283 = AXIS2_PLACEMENT_3D ( 'NONE', #158, #232, #21 ) ;
#284 = DIRECTION ( 'NONE',  ( 0.0000000000000000000, 1.000000000000000000, 0.0000000000000000000 ) ) ;
#285 = ORIENTED_EDGE ( 'NONE', *, *, #151, .F. ) ;
#286 = UNCERTAINTY_MEASURE_WITH_UNIT (LENGTH_MEASURE( 1.000000000000000082E-05 ), #307, 'distance_accuracy_value', 'NONE');
#287 = CARTESIAN_POINT ( 'NONE',  ( 0.0000000000000000000, 0.0000000000000000000, 0.0000000000000000000 ) ) ;
#288 = AXIS2_PLACEMENT_3D ( 'NONE', #100, #122, #97 ) ;
#289 = ORIENTED_EDGE ( 'NONE', *, *, #212, .F. ) ;
#290 = EDGE_CURVE ( 'NONE', #319, #90, #137, .T. ) ;
#291 = DIRECTION ( 'NONE',  ( 1.903218546456022717E-15, 0.8571673007021097801, 0.5150380749100585964 ) ) ;
#292 = FACE_OUTER_BOUND ( 'NONE', #217, .T. ) ;
#293 =( GEOMETRIC_REPRESENTATION_CONTEXT ( 3 ) GLOBAL_UNCERTAINTY_ASSIGNED_CONTEXT ( ( #286 ) ) GLOBAL_UNIT_ASSIGNED_CONTEXT ( ( #307, #184, #27 ) ) REPRESENTATION_CONTEXT ( 'NONE', 'WORKASPACE' ) );
#294 = DIRECTION ( 'NONE',  ( -3.349443381543040427E-31, -1.000000000000000000, -9.427844978134881830E-17 ) ) ;
#295 = SECURITY_CLASSIFICATION_LEVEL ( 'unclassified' ) ;
#296 = ORIENTED_EDGE ( 'NONE', *, *, #47, .T. ) ;
#297 = LINE ( 'NONE', #300, #146 ) ;
#298 = APPROVAL_STATUS ( 'not_yet_approved' ) ;
#299 = EDGE_LOOP ( 'NONE', ( #61, #124 ) ) ;
#300 = CARTESIAN_POINT ( 'NONE',  ( 1.206288842183769857E-15, -0.5749999999999962919, 0.3454948559408487219 ) ) ;
#301 = APPROVAL_DATE_TIME ( #203, #24 ) ;
#302 = VECTOR ( 'NONE', #274, 1000.000000000000000 ) ;
#303 = CC_DESIGN_APPROVAL ( #244, ( #314 ) ) ;
#304 = DIRECTION ( 'NONE',  ( -3.491481338843133355E-15, 1.224646799147353207E-16, -1.000000000000000000 ) ) ;
#305 = CC_DESIGN_DATE_AND_TIME_ASSIGNMENT ( #148, #226, ( #314 ) ) ;
#306 = ORIENTED_EDGE ( 'NONE', *, *, #259, .T. ) ;
#307 =( LENGTH_UNIT ( ) NAMED_UNIT ( * ) SI_UNIT ( .MILLI., .METRE. ) );
#308 = APPROVAL_ROLE ( '' ) ;
#309 = PLANE ( 'NONE',  #36 ) ;
#310 = DIRECTION ( 'NONE',  ( 0.0000000000000000000, 0.0000000000000000000, 1.000000000000000000 ) ) ;
#311 = DIRECTION ( 'NONE',  ( 4.275831445896958607E-31, 1.000000000000000000, 1.224646799147353207E-16 ) ) ;
#312 = FACE_OUTER_BOUND ( 'NONE', #181, .T. ) ;
#313 = AXIS2_PLACEMENT_3D ( 'NONE', #8, #316, #175 ) ;
#314 = SECURITY_CLASSIFICATION ( '', '', #295 ) ;
#315 = EDGE_LOOP ( 'NONE', ( #336, #138 ) ) ;
#316 = DIRECTION ( 'NONE',  ( -3.491481338843133355E-15, 1.224646799147353207E-16, -1.000000000000000000 ) ) ;
#317 = DATE_AND_TIME ( #41, #29 ) ;
#318 = DIRECTION ( 'NONE',  ( -3.491481338843133355E-15, 1.224646799147353207E-16, -1.000000000000000000 ) ) ;
#319 = VERTEX_POINT ( 'NONE', #152 ) ;
#320 = AXIS2_PLACEMENT_3D ( 'NONE', #222, #191, #56 ) ;
#321 = DIRECTION ( 'NONE',  ( 0.0000000000000000000, 1.000000000000000000, 0.0000000000000000000 ) ) ;
#322 = CARTESIAN_POINT ( 'NONE',  ( 0.0000000000000000000, 0.0000000000000000000, 0.0000000000000000000 ) ) ;
#323 = EDGE_LOOP ( 'NONE', ( #285, #78, #33 ) ) ;
#324 = DIRECTION ( 'NONE',  ( -3.491481338843133355E-15, 1.224646799147353207E-16, -1.000000000000000000 ) ) ;
#325 = ADVANCED_FACE ( 'NONE', ( #211 ), #183, .T. ) ;
#326 = VECTOR ( 'NONE', #189, 1000.000000000000000 ) ;
#327 = EDGE_LOOP ( 'NONE', ( #6, #164, #86, #83 ) ) ;
#328 = ORIENTED_EDGE ( 'NONE', *, *, #80, .F. ) ;
#329 = AXIS2_PLACEMENT_3D ( 'NONE', #229, #318, #14 ) ;
#330 = APPROVAL ( #331, 'UNSPECIFIED' ) ;
#331 = APPROVAL_STATUS ( 'not_yet_approved' ) ;
#332 = DIRECTION ( 'NONE',  ( 0.0000000000000000000, 1.000000000000000000, 0.0000000000000000000 ) ) ;
#333 = CARTESIAN_POINT ( 'NONE',  ( 2.458603081390737317E-31, 0.5749999999999967359, 7.041719095097240697E-17 ) ) ;
#334 = DIRECTION ( 'NONE',  ( 1.000000000000000000, 0.0000000000000000000, 0.0000000000000000000 ) ) ;
#335 = CLOSED_SHELL ( 'NONE', ( #279, #5, #15, #91, #123, #153 ) ) ;
#336 = ORIENTED_EDGE ( 'NONE', *, *, #182, .F. ) ;
#337 = AXIS2_PLACEMENT_3D ( 'NONE', #287, #310, #334 ) ;
ENDSEC;
END-ISO-10303-21;
