ISO-10303-21;
HEADER;
FILE_DESCRIPTION (( 'STEP AP203' ),
    '1' );
FILE_NAME ('258.step',
    '2021-09-03T07:21:36',
    ( '' ),
    ( '' ),
    'SwSTEP 2.0',
    'SolidWorks 2019',
    '' );
FILE_SCHEMA (( 'CONFIG_CONTROL_DESIGN' ));
ENDSEC;

DATA;
#1 = DIRECTION ( 'NONE',  ( -3.491481338843133355E-15, 1.224646799147353207E-16, -1.000000000000000000 ) ) ;
#2 = AXIS2_PLACEMENT_3D ( 'NONE', #299, #10, #226 ) ;
#3 = EDGE_LOOP ( 'NONE', ( #128, #53, #23, #256 ) ) ;
#4 = DIRECTION ( 'NONE',  ( 0.0000000000000000000, 1.000000000000000000, 0.0000000000000000000 ) ) ;
#5 = CARTESIAN_POINT ( 'NONE',  ( 6.735557395310403073E-17, -0.5499999999999986011, -6.735557395310448679E-17 ) ) ;
#6 = DIRECTION ( 'NONE',  ( -3.501690807976815351E-31, -1.000000000000000000, -9.856383386231922922E-17 ) ) ;
#7 = CARTESIAN_POINT ( 'NONE',  ( 6.735557395310380886E-17, -0.5499999999999969358, -6.735557395310426492E-17 ) ) ;
#8 = ORIENTED_EDGE ( 'NONE', *, *, #76, .T. ) ;
#9 = DIRECTION ( 'NONE',  ( -3.491481338843133355E-15, 1.224646799147353207E-16, -1.000000000000000000 ) ) ;
#10 = DIRECTION ( 'NONE',  ( -3.491481338843133355E-15, 1.224646799147353207E-16, -1.000000000000000000 ) ) ;
#11 = EDGE_LOOP ( 'NONE', ( #282, #46, #176 ) ) ;
#12 = CARTESIAN_POINT ( 'NONE',  ( 0.0000000000000000000, 0.0000000000000000000, 0.0000000000000000000 ) ) ;
#13 = CC_DESIGN_PERSON_AND_ORGANIZATION_ASSIGNMENT ( #121, #206, ( #72 ) ) ;
#14 = APPROVAL_STATUS ( 'not_yet_approved' ) ;
#15 = EDGE_CURVE ( 'NONE', #287, #30, #140, .T. ) ;
#16 = CARTESIAN_POINT ( 'NONE',  ( 1.153841501219257850E-15, -0.5499999999999963807, 0.3304733404651595818 ) ) ;
#17 = ORIENTED_EDGE ( 'NONE', *, *, #277, .F. ) ;
#18 = COORDINATED_UNIVERSAL_TIME_OFFSET ( 1, 0, .AHEAD. ) ;
#19 = ADVANCED_FACE ( 'NONE', ( #315 ), #131, .F. ) ;
#20 = DATE_AND_TIME ( #75, #89 ) ;
#21 = APPROVAL ( #246, 'UNSPECIFIED' ) ;
#22 = ORIENTED_EDGE ( 'NONE', *, *, #28, .F. ) ;
#23 = ORIENTED_EDGE ( 'NONE', *, *, #277, .T. ) ;
#24 = AXIS2_PLACEMENT_3D ( 'NONE', #238, #74, #180 ) ;
#25 = APPROVAL_PERSON_ORGANIZATION ( #258, #49, #125 ) ;
#26 = VERTEX_POINT ( 'NONE', #134 ) ;
#27 = DIRECTION ( 'NONE',  ( -3.491481338843133355E-15, 1.224646799147353207E-16, -1.000000000000000000 ) ) ;
#28 = EDGE_CURVE ( 'NONE', #264, #81, #319, .T. ) ;
#29 = CYLINDRICAL_SURFACE ( 'NONE', #254, 0.5499999999999986011 ) ;
#30 = VERTEX_POINT ( 'NONE', #155 ) ;
#31 = CARTESIAN_POINT ( 'NONE',  ( 1.153841501219258047E-15, -4.047131186041911941E-17, 0.3304733404651596373 ) ) ;
#32 =( GEOMETRIC_REPRESENTATION_CONTEXT ( 3 ) GLOBAL_UNCERTAINTY_ASSIGNED_CONTEXT ( ( #58 ) ) GLOBAL_UNIT_ASSIGNED_CONTEXT ( ( #203, #175, #92 ) ) REPRESENTATION_CONTEXT ( 'NONE', 'WORKASPACE' ) );
#33 = DIRECTION ( 'NONE',  ( -3.491481338843133355E-15, 1.224646799147353207E-16, -1.000000000000000000 ) ) ;
#34 = LINE ( 'NONE', #5, #162 ) ;
#35 = PERSON ( 'UNSPECIFIED', 'UNSPECIFIED', 'UNSPECIFIED', ('UNSPECIFIED'), ('UNSPECIFIED'), ('UNSPECIFIED') ) ;
#36 = VERTEX_POINT ( 'NONE', #308 ) ;
#37 = DIRECTION ( 'NONE',  ( 4.275831445896958607E-31, 1.000000000000000000, 1.224646799147353207E-16 ) ) ;
#38 = AXIS2_PLACEMENT_3D ( 'NONE', #138, #33, #189 ) ;
#39 = PERSON_AND_ORGANIZATION ( #35, #223 ) ;
#40 = AXIS2_PLACEMENT_3D ( 'NONE', #114, #297, #251 ) ;
#41 = CC_DESIGN_PERSON_AND_ORGANIZATION_ASSIGNMENT ( #143, #204, ( #109 ) ) ;
#42 = DIRECTION ( 'NONE',  ( -3.491481338843133355E-15, 1.224646799147353207E-16, -1.000000000000000000 ) ) ;
#43 = EDGE_LOOP ( 'NONE', ( #290, #225, #202, #252 ) ) ;
#44 = CARTESIAN_POINT ( 'NONE',  ( 0.0000000000000000000, 0.0000000000000000000, 0.0000000000000000000 ) ) ;
#45 = APPROVAL_PERSON_ORGANIZATION ( #281, #21, #120 ) ;
#46 = ORIENTED_EDGE ( 'NONE', *, *, #306, .T. ) ;
#47 = DATE_AND_TIME ( #280, #148 ) ;
#48 = ADVANCED_FACE ( 'NONE', ( #266 ), #310, .T. ) ;
#49 = APPROVAL ( #101, 'UNSPECIFIED' ) ;
#50 = CC_DESIGN_APPROVAL ( #21, ( #133 ) ) ;
#51 = ORIENTED_EDGE ( 'NONE', *, *, #67, .T. ) ;
#52 = DATE_TIME_ROLE ( 'classification_date' ) ;
#53 = ORIENTED_EDGE ( 'NONE', *, *, #274, .T. ) ;
#54 = EDGE_LOOP ( 'NONE', ( #105, #325 ) ) ;
#55 = MANIFOLD_SOLID_BREP ( 'Corps-Déplacer/Copier1[1]', #129 ) ;
#56 = EDGE_CURVE ( 'NONE', #264, #36, #232, .T. ) ;
#57 = DIRECTION ( 'NONE',  ( -3.491481338843133355E-15, 1.224646799147353207E-16, -1.000000000000000000 ) ) ;
#58 = UNCERTAINTY_MEASURE_WITH_UNIT (LENGTH_MEASURE( 1.000000000000000082E-05 ), #203, 'distance_accuracy_value', 'NONE');
#59 = FACE_OUTER_BOUND ( 'NONE', #205, .T. ) ;
#60 = CARTESIAN_POINT ( 'NONE',  ( 1.047444401652940007E-13, -3.673940397442059178E-15, 30.00000000000000000 ) ) ;
#61 = DIRECTION ( 'NONE',  ( 3.501690807976815351E-31, 1.000000000000000000, 9.856383386231922922E-17 ) ) ;
#62 = CARTESIAN_POINT ( 'NONE',  ( 1.153841501219258047E-15, -4.047131186041911941E-17, 0.3304733404651596373 ) ) ;
#63 = ADVANCED_FACE ( 'NONE', ( #269 ), #278, .T. ) ;
#64 = DIRECTION ( 'NONE',  ( 0.0000000000000000000, 1.000000000000000000, 0.0000000000000000000 ) ) ;
#65 = SECURITY_CLASSIFICATION_LEVEL ( 'unclassified' ) ;
#66 = LINE ( 'NONE', #323, #192 ) ;
#67 = EDGE_CURVE ( 'NONE', #337, #263, #215, .T. ) ;
#68 = FACE_OUTER_BOUND ( 'NONE', #54, .T. ) ;
#69 = PERSON_AND_ORGANIZATION_ROLE ( 'creator' ) ;
#70 = DIRECTION ( 'NONE',  ( 0.0000000000000000000, 0.0000000000000000000, 1.000000000000000000 ) ) ;
#71 = APPLICATION_PROTOCOL_DEFINITION ( 'international standard', 'config_control_design', 1994, #236 ) ;
#72 = PRODUCT_DEFINITION_FORMATION_WITH_SPECIFIED_SOURCE ( 'ANY', '', #109, .NOT_KNOWN. ) ;
#73 = APPLICATION_CONTEXT ( 'configuration controlled 3d designs of mechanical parts and assemblies' ) ;
#74 = DIRECTION ( 'NONE',  ( 3.491481338843133355E-15, -1.224646799147353207E-16, 1.000000000000000000 ) ) ;
#75 = CALENDAR_DATE ( 2021, 3, 9 ) ;
#76 = EDGE_CURVE ( 'NONE', #26, #80, #34, .T. ) ;
#77 = VECTOR ( 'NONE', #336, 1000.000000000000114 ) ;
#78 = APPROVAL_PERSON_ORGANIZATION ( #257, #259, #303 ) ;
#79 = ADVANCED_FACE ( 'NONE', ( #210 ), #188, .T. ) ;
#80 = VERTEX_POINT ( 'NONE', #84 ) ;
#81 = VERTEX_POINT ( 'NONE', #160 ) ;
#82 = ORIENTED_EDGE ( 'NONE', *, *, #88, .F. ) ;
#83 = CONICAL_SURFACE ( 'NONE', #260, 0.5499999999999963807, 1.029744258676649649 ) ;
#84 = CARTESIAN_POINT ( 'NONE',  ( 6.605635287808827931E-14, -0.5499999999999982681, 8.000000000000000000 ) ) ;
#85 = DIRECTION ( 'NONE',  ( 0.0000000000000000000, 1.000000000000000000, 0.0000000000000000000 ) ) ;
#86 = DESIGN_CONTEXT ( 'detailed design', #236, 'design' ) ;
#87 = DIRECTION ( 'NONE',  ( 0.0000000000000000000, 1.000000000000000000, 0.0000000000000000000 ) ) ;
#88 = EDGE_CURVE ( 'NONE', #81, #264, #328, .T. ) ;
#89 = LOCAL_TIME ( 9, 21, 36.00000000000000000, #99 ) ;
#90 = DIRECTION ( 'NONE',  ( -3.491481338843133355E-15, 1.224646799147353207E-16, -1.000000000000000000 ) ) ;
#91 = CARTESIAN_POINT ( 'NONE',  ( 1.047444401652940007E-13, 0.3499999999999963696, 30.00000000000000000 ) ) ;
#92 =( NAMED_UNIT ( * ) SI_UNIT ( $, .STERADIAN. ) SOLID_ANGLE_UNIT ( ) );
#93 = CARTESIAN_POINT ( 'NONE',  ( 1.461020167993524589E-14, -0.5499999999999982681, 8.000000000000000000 ) ) ;
#94 = CIRCLE ( 'NONE', #147, 0.5499999999999972689 ) ;
#95 = CALENDAR_DATE ( 2021, 3, 9 ) ;
#96 = VECTOR ( 'NONE', #275, 999.9999999999998863 ) ;
#97 = DIRECTION ( 'NONE',  ( 1.000000000000000000, 0.0000000000000000000, 0.0000000000000000000 ) ) ;
#98 = PERSON_AND_ORGANIZATION ( #35, #223 ) ;
#99 = COORDINATED_UNIVERSAL_TIME_OFFSET ( 1, 0, .AHEAD. ) ;
#100 = EDGE_CURVE ( 'NONE', #30, #287, #126, .T. ) ;
#101 = APPROVAL_STATUS ( 'not_yet_approved' ) ;
#102 = CLOSED_SHELL ( 'NONE', ( #79, #63, #174, #243, #293 ) ) ;
#103 = ORIENTED_EDGE ( 'NONE', *, *, #306, .F. ) ;
#104 = ORIENTED_EDGE ( 'NONE', *, *, #247, .T. ) ;
#105 = ORIENTED_EDGE ( 'NONE', *, *, #67, .F. ) ;
#106 = AXIS2_PLACEMENT_3D ( 'NONE', #211, #156, #244 ) ;
#107 = CC_DESIGN_SECURITY_CLASSIFICATION ( #179, ( #72 ) ) ;
#108 = DIRECTION ( 'NONE',  ( -3.491481338843133355E-15, 1.224646799147353207E-16, -1.000000000000000000 ) ) ;
#109 = PRODUCT ( '258', '258', '', ( #250 ) ) ;
#110 = EDGE_CURVE ( 'NONE', #80, #166, #135, .T. ) ;
#111 = DIRECTION ( 'NONE',  ( -3.491481338843133355E-15, 1.224646799147353207E-16, -1.000000000000000000 ) ) ;
#112 = CARTESIAN_POINT ( 'NONE',  ( 2.793185071074506684E-14, 4.124339402320074210E-33, 8.000000000000000000 ) ) ;
#113 = AXIS2_PLACEMENT_3D ( 'NONE', #62, #241, #61 ) ;
#114 = CARTESIAN_POINT ( 'NONE',  ( 2.793185071074506684E-14, 4.124339402320074210E-33, 8.000000000000000000 ) ) ;
#115 = CIRCLE ( 'NONE', #122, 0.5500000000000000444 ) ;
#116 = ORIENTED_EDGE ( 'NONE', *, *, #100, .F. ) ;
#117 = CARTESIAN_POINT ( 'NONE',  ( 1.047444401652940007E-13, -3.673940397442059178E-15, 30.00000000000000000 ) ) ;
#118 = APPROVAL_DATE_TIME ( #305, #259 ) ;
#119 = CYLINDRICAL_SURFACE ( 'NONE', #239, 0.5499999999999969358 ) ;
#120 = APPROVAL_ROLE ( '' ) ;
#121 = PERSON_AND_ORGANIZATION ( #35, #223 ) ;
#122 = AXIS2_PLACEMENT_3D ( 'NONE', #245, #42, #198 ) ;
#123 = DIRECTION ( 'NONE',  ( 1.798245827342160317E-15, -0.8571673007021098911, 0.5150380749100582634 ) ) ;
#124 = CALENDAR_DATE ( 2021, 3, 9 ) ;
#125 = APPROVAL_ROLE ( '' ) ;
#126 = CIRCLE ( 'NONE', #113, 0.5499999999999963807 ) ;
#127 = EDGE_CURVE ( 'NONE', #263, #337, #307, .T. ) ;
#128 = ORIENTED_EDGE ( 'NONE', *, *, #76, .F. ) ;
#129 = CLOSED_SHELL ( 'NONE', ( #48, #201, #183, #230, #216, #19 ) ) ;
#130 = DIRECTION ( 'NONE',  ( 3.501690807976815351E-31, 1.000000000000000000, 9.856383386231922922E-17 ) ) ;
#131 = PLANE ( 'NONE',  #169 ) ;
#132 = DIRECTION ( 'NONE',  ( -3.491481338843133355E-15, 1.224646799147353207E-16, -1.000000000000000000 ) ) ;
#133 = PRODUCT_DEFINITION ( 'UNKNOWN', '', #72, #86 ) ;
#134 = CARTESIAN_POINT ( 'NONE',  ( 6.605635287808814047E-14, -0.5500000000000037081, 29.80000000000000071 ) ) ;
#135 = CIRCLE ( 'NONE', #237, 0.5499999999999972689 ) ;
#136 = VECTOR ( 'NONE', #170, 1000.000000000000000 ) ;
#137 = FACE_OUTER_BOUND ( 'NONE', #248, .T. ) ;
#138 = CARTESIAN_POINT ( 'NONE',  ( 2.793185071074506684E-14, -9.797174393178825657E-16, 8.000000000000000000 ) ) ;
#139 = ORIENTED_EDGE ( 'NONE', *, *, #100, .T. ) ;
#140 = CIRCLE ( 'NONE', #289, 0.5499999999999963807 ) ;
#141 = DIRECTION ( 'NONE',  ( 4.275831445896958607E-31, 1.000000000000000000, 1.224646799147352961E-16 ) ) ;
#142 = CIRCLE ( 'NONE', #2, 0.5500000000000000444 ) ;
#143 = PERSON_AND_ORGANIZATION ( #35, #223 ) ;
#144 = ORIENTED_EDGE ( 'NONE', *, *, #149, .F. ) ;
#145 = CARTESIAN_POINT ( 'NONE',  ( 1.153841501219257850E-15, -0.5499999999999963807, 0.3304733404651595818 ) ) ;
#146 = COORDINATED_UNIVERSAL_TIME_OFFSET ( 1, 0, .AHEAD. ) ;
#147 = AXIS2_PLACEMENT_3D ( 'NONE', #294, #158, #164 ) ;
#148 = LOCAL_TIME ( 9, 21, 36.00000000000000000, #324 ) ;
#149 = EDGE_CURVE ( 'NONE', #166, #80, #94, .T. ) ;
#150 = DATE_TIME_ROLE ( 'creation_date' ) ;
#151 = AXIS2_PLACEMENT_3D ( 'NONE', #117, #90, #64 ) ;
#152 = ORIENTED_EDGE ( 'NONE', *, *, #149, .T. ) ;
#153 = ORIENTED_EDGE ( 'NONE', *, *, #56, .T. ) ;
#154 = PRODUCT_RELATED_PRODUCT_CATEGORY ( 'detail', '', ( #109 ) ) ;
#155 = CARTESIAN_POINT ( 'NONE',  ( 1.221197075172362102E-15, 0.5499999999999963807, 0.3304733404651596373 ) ) ;
#156 = DIRECTION ( 'NONE',  ( -3.491481338843133355E-15, 1.224646799147353207E-16, -1.000000000000000000 ) ) ;
#157 = EDGE_LOOP ( 'NONE', ( #329, #331, #153, #184 ) ) ;
#158 = DIRECTION ( 'NONE',  ( -3.491481338843133355E-15, 1.224646799147353207E-16, -1.000000000000000000 ) ) ;
#159 = ORIENTED_EDGE ( 'NONE', *, *, #190, .F. ) ;
#160 = CARTESIAN_POINT ( 'NONE',  ( 1.044504011373713257E-13, -0.3500000000000037526, 30.00000000000000000 ) ) ;
#161 = CARTESIAN_POINT ( 'NONE',  ( 2.793185071074506684E-14, -9.797174393178825657E-16, 8.000000000000000000 ) ) ;
#162 = VECTOR ( 'NONE', #111, 1000.000000000000000 ) ;
#163 = LOCAL_TIME ( 9, 21, 36.00000000000000000, #276 ) ;
#164 = DIRECTION ( 'NONE',  ( 0.0000000000000000000, 1.000000000000000000, 0.0000000000000000000 ) ) ;
#165 = DIRECTION ( 'NONE',  ( -2.382254525458708792E-15, -0.7071067811865495711, -0.7071067811865455743 ) ) ;
#166 = VERTEX_POINT ( 'NONE', #270 ) ;
#167 = FACE_OUTER_BOUND ( 'NONE', #3, .T. ) ;
#168 = PERSON_AND_ORGANIZATION_ROLE ( 'classification_officer' ) ;
#169 = AXIS2_PLACEMENT_3D ( 'NONE', #334, #335, #208 ) ;
#170 = DIRECTION ( 'NONE',  ( -3.491481338843133355E-15, 1.224646799147353207E-16, -1.000000000000000000 ) ) ;
#171 = CC_DESIGN_DATE_AND_TIME_ASSIGNMENT ( #262, #52, ( #179 ) ) ;
#172 = PLANE ( 'NONE',  #40 ) ;
#173 = EDGE_CURVE ( 'NONE', #81, #26, #317, .T. ) ;
#174 = ADVANCED_FACE ( 'NONE', ( #213 ), #83, .T. ) ;
#175 =( NAMED_UNIT ( * ) PLANE_ANGLE_UNIT ( ) SI_UNIT ( $, .RADIAN. ) );
#176 = ORIENTED_EDGE ( 'NONE', *, *, #15, .T. ) ;
#177 = AXIS2_PLACEMENT_3D ( 'NONE', #288, #27, #234 ) ;
#178 = MANIFOLD_SOLID_BREP ( 'Corps-Déplacer/Copier1[2]', #102 ) ;
#179 = SECURITY_CLASSIFICATION ( '', '', #65 ) ;
#180 = DIRECTION ( 'NONE',  ( -3.501690807976815351E-31, -1.000000000000000000, -9.856383386231922922E-17 ) ) ;
#181 = VECTOR ( 'NONE', #123, 1000.000000000000000 ) ;
#182 = ORIENTED_EDGE ( 'NONE', *, *, #265, .T. ) ;
#183 = ADVANCED_FACE ( 'NONE', ( #59 ), #318, .F. ) ;
#184 = ORIENTED_EDGE ( 'NONE', *, *, #274, .F. ) ;
#185 = AXIS2_PLACEMENT_3D ( 'NONE', #60, #132, #85 ) ;
#186 = CARTESIAN_POINT ( 'NONE',  ( 1.153841501219258047E-15, -4.047131186041911941E-17, 0.3304733404651596373 ) ) ;
#187 = AXIS2_PLACEMENT_3D ( 'NONE', #44, #70, #97 ) ;
#188 = CYLINDRICAL_SURFACE ( 'NONE', #106, 0.5499999999999969358 ) ;
#189 = DIRECTION ( 'NONE',  ( 0.0000000000000000000, 1.000000000000000000, 0.0000000000000000000 ) ) ;
#190 = EDGE_CURVE ( 'NONE', #263, #287, #268, .T. ) ;
#191 = ORIENTED_EDGE ( 'NONE', *, *, #321, .T. ) ;
#192 = VECTOR ( 'NONE', #195, 1000.000000000000000 ) ;
#193 = DIRECTION ( 'NONE',  ( -4.275831445896958607E-31, -1.000000000000000000, -1.224646799147353207E-16 ) ) ;
#194 = CARTESIAN_POINT ( 'NONE',  ( 2.351707295243321191E-31, 0.5499999999999986011, 6.735557395310425260E-17 ) ) ;
#195 = DIRECTION ( 'NONE',  ( -3.491481338843133355E-15, 1.224646799147353207E-16, -1.000000000000000000 ) ) ;
#196 = LINE ( 'NONE', #16, #181 ) ;
#197 = CC_DESIGN_PERSON_AND_ORGANIZATION_ASSIGNMENT ( #98, #69, ( #72 ) ) ;
#198 = DIRECTION ( 'NONE',  ( 0.0000000000000000000, 1.000000000000000000, 0.0000000000000000000 ) ) ;
#199 = DATE_AND_TIME ( #95, #261 ) ;
#200 = PRODUCT_DEFINITION_SHAPE ( 'NONE', 'NONE',  #133 ) ;
#201 = ADVANCED_FACE ( 'NONE', ( #137 ), #29, .T. ) ;
#202 = ORIENTED_EDGE ( 'NONE', *, *, #321, .F. ) ;
#203 =( LENGTH_UNIT ( ) NAMED_UNIT ( * ) SI_UNIT ( .MILLI., .METRE. ) );
#204 = PERSON_AND_ORGANIZATION_ROLE ( 'design_owner' ) ;
#205 = EDGE_LOOP ( 'NONE', ( #152, #229 ) ) ;
#206 = PERSON_AND_ORGANIZATION_ROLE ( 'design_supplier' ) ;
#207 = ORIENTED_EDGE ( 'NONE', *, *, #190, .T. ) ;
#208 = DIRECTION ( 'NONE',  ( 4.275831445896958607E-31, 1.000000000000000000, 1.224646799147353207E-16 ) ) ;
#209 = DIRECTION ( 'NONE',  ( 3.491481338843133355E-15, -1.224646799147353207E-16, 1.000000000000000000 ) ) ;
#210 = FACE_OUTER_BOUND ( 'NONE', #231, .T. ) ;
#211 = CARTESIAN_POINT ( 'NONE',  ( 0.0000000000000000000, 0.0000000000000000000, 0.0000000000000000000 ) ) ;
#212 = VERTEX_POINT ( 'NONE', #12 ) ;
#213 = FACE_OUTER_BOUND ( 'NONE', #11, .T. ) ;
#214 = CARTESIAN_POINT ( 'NONE',  ( 1.047444401652940007E-13, -3.673940397442059178E-15, 30.00000000000000000 ) ) ;
#215 = CIRCLE ( 'NONE', #271, 0.5499999999999972689 ) ;
#216 = ADVANCED_FACE ( 'NONE', ( #322 ), #286, .T. ) ;
#217 = FACE_OUTER_BOUND ( 'NONE', #301, .T. ) ;
#218 = LINE ( 'NONE', #326, #96 ) ;
#219 = CC_DESIGN_DATE_AND_TIME_ASSIGNMENT ( #199, #150, ( #133 ) ) ;
#220 = CALENDAR_DATE ( 2021, 3, 9 ) ;
#221 = CARTESIAN_POINT ( 'NONE',  ( 0.0000000000000000000, 0.0000000000000000000, 0.0000000000000000000 ) ) ;
#222 = APPROVAL_DATE_TIME ( #47, #21 ) ;
#223 = ORGANIZATION ( 'UNSPECIFIED', 'UNSPECIFIED', '' ) ;
#224 = ORIENTED_EDGE ( 'NONE', *, *, #265, .F. ) ;
#225 = ORIENTED_EDGE ( 'NONE', *, *, #173, .T. ) ;
#226 = DIRECTION ( 'NONE',  ( 0.0000000000000000000, 1.000000000000000000, 0.0000000000000000000 ) ) ;
#227 = VECTOR ( 'NONE', #1, 1000.000000000000000 ) ;
#228 = CC_DESIGN_PERSON_AND_ORGANIZATION_ASSIGNMENT ( #330, #168, ( #179 ) ) ;
#229 = ORIENTED_EDGE ( 'NONE', *, *, #110, .T. ) ;
#230 = ADVANCED_FACE ( 'NONE', ( #167 ), #249, .T. ) ;
#231 = EDGE_LOOP ( 'NONE', ( #51, #207, #116, #224 ) ) ;
#232 = LINE ( 'NONE', #292, #77 ) ;
#233 = DIRECTION ( 'NONE',  ( -3.491481338843133355E-15, 1.224646799147353207E-16, -1.000000000000000000 ) ) ;
#234 = DIRECTION ( 'NONE',  ( 0.0000000000000000000, 1.000000000000000000, 0.0000000000000000000 ) ) ;
#235 = DIRECTION ( 'NONE',  ( 3.491481338843133355E-15, -1.224646799147353207E-16, 1.000000000000000000 ) ) ;
#236 = APPLICATION_CONTEXT ( 'configuration controlled 3d designs of mechanical parts and assemblies' ) ;
#237 = AXIS2_PLACEMENT_3D ( 'NONE', #316, #314, #273 ) ;
#238 = CARTESIAN_POINT ( 'NONE',  ( 1.153841501219258047E-15, -4.047131186041911941E-17, 0.3304733404651596373 ) ) ;
#239 = AXIS2_PLACEMENT_3D ( 'NONE', #221, #279, #141 ) ;
#240 = CARTESIAN_POINT ( 'NONE',  ( 0.0000000000000000000, 0.0000000000000000000, 0.0000000000000000000 ) ) ;
#241 = DIRECTION ( 'NONE',  ( -3.491481338843133355E-15, 1.224646799147353207E-16, -1.000000000000000000 ) ) ;
#242 = SHAPE_DEFINITION_REPRESENTATION ( #200, #283 ) ;
#243 = ADVANCED_FACE ( 'NONE', ( #217 ), #119, .T. ) ;
#244 = DIRECTION ( 'NONE',  ( 4.275831445896958607E-31, 1.000000000000000000, 1.224646799147352961E-16 ) ) ;
#245 = CARTESIAN_POINT ( 'NONE',  ( 1.040461438975253740E-13, -3.649447461459112464E-15, 29.80000000000000071 ) ) ;
#246 = APPROVAL_STATUS ( 'not_yet_approved' ) ;
#247 = EDGE_CURVE ( 'NONE', #212, #30, #218, .T. ) ;
#248 = EDGE_LOOP ( 'NONE', ( #191, #8, #144, #17 ) ) ;
#249 = CYLINDRICAL_SURFACE ( 'NONE', #272, 0.5499999999999986011 ) ;
#250 = MECHANICAL_CONTEXT ( 'NONE', #73, 'mechanical' ) ;
#251 = DIRECTION ( 'NONE',  ( -4.275831445896958607E-31, -1.000000000000000000, -1.224646799147353207E-16 ) ) ;
#252 = ORIENTED_EDGE ( 'NONE', *, *, #56, .F. ) ;
#253 = LOCAL_TIME ( 9, 21, 36.00000000000000000, #18 ) ;
#254 = AXIS2_PLACEMENT_3D ( 'NONE', #240, #296, #313 ) ;
#255 = APPLICATION_PROTOCOL_DEFINITION ( 'international standard', 'config_control_design', 1994, #73 ) ;
#256 = ORIENTED_EDGE ( 'NONE', *, *, #110, .F. ) ;
#257 = PERSON_AND_ORGANIZATION ( #35, #223 ) ;
#258 = PERSON_AND_ORGANIZATION ( #35, #223 ) ;
#259 = APPROVAL ( #14, 'UNSPECIFIED' ) ;
#260 = AXIS2_PLACEMENT_3D ( 'NONE', #31, #209, #6 ) ;
#261 = LOCAL_TIME ( 9, 21, 36.00000000000000000, #146 ) ;
#262 = DATE_AND_TIME ( #220, #163 ) ;
#263 = VERTEX_POINT ( 'NONE', #93 ) ;
#264 = VERTEX_POINT ( 'NONE', #91 ) ;
#265 = EDGE_CURVE ( 'NONE', #337, #30, #66, .T. ) ;
#266 = FACE_OUTER_BOUND ( 'NONE', #43, .T. ) ;
#267 = ORIENTED_EDGE ( 'NONE', *, *, #15, .F. ) ;
#268 = LINE ( 'NONE', #7, #227 ) ;
#269 = FACE_OUTER_BOUND ( 'NONE', #311, .T. ) ;
#270 = CARTESIAN_POINT ( 'NONE',  ( 2.793185071074506684E-14, 0.5499999999999963807, 8.000000000000000000 ) ) ;
#271 = AXIS2_PLACEMENT_3D ( 'NONE', #161, #108, #87 ) ;
#272 = AXIS2_PLACEMENT_3D ( 'NONE', #298, #9, #37 ) ;
#273 = DIRECTION ( 'NONE',  ( 0.0000000000000000000, 1.000000000000000000, 0.0000000000000000000 ) ) ;
#274 = EDGE_CURVE ( 'NONE', #26, #36, #115, .T. ) ;
#275 = DIRECTION ( 'NONE',  ( 1.903218546456022717E-15, 0.8571673007021097801, 0.5150380749100585964 ) ) ;
#276 = COORDINATED_UNIVERSAL_TIME_OFFSET ( 1, 0, .AHEAD. ) ;
#277 = EDGE_CURVE ( 'NONE', #36, #166, #302, .T. ) ;
#278 = CONICAL_SURFACE ( 'NONE', #24, 0.5499999999999963807, 1.029744258676649649 ) ;
#279 = DIRECTION ( 'NONE',  ( -3.491481338843133355E-15, 1.224646799147353207E-16, -1.000000000000000000 ) ) ;
#280 = CALENDAR_DATE ( 2021, 3, 9 ) ;
#281 = PERSON_AND_ORGANIZATION ( #35, #223 ) ;
#282 = ORIENTED_EDGE ( 'NONE', *, *, #247, .F. ) ;
#283 = ADVANCED_BREP_SHAPE_REPRESENTATION ( '258', ( #55, #178, #187 ), #32 ) ;
#284 = CC_DESIGN_PERSON_AND_ORGANIZATION_ASSIGNMENT ( #39, #327, ( #133 ) ) ;
#285 = VECTOR ( 'NONE', #165, 1000.000000000000114 ) ;
#286 = CONICAL_SURFACE ( 'NONE', #151, 0.3500000000000000333, 0.7853981633974512766 ) ;
#287 = VERTEX_POINT ( 'NONE', #145 ) ;
#288 = CARTESIAN_POINT ( 'NONE',  ( 1.047444401652940007E-13, -3.673940397442059178E-15, 30.00000000000000000 ) ) ;
#289 = AXIS2_PLACEMENT_3D ( 'NONE', #186, #57, #130 ) ;
#290 = ORIENTED_EDGE ( 'NONE', *, *, #28, .T. ) ;
#291 = CARTESIAN_POINT ( 'NONE',  ( 1.047873028032641491E-13, -0.3500000000000037526, 30.00000000000000000 ) ) ;
#292 = CARTESIAN_POINT ( 'NONE',  ( 1.047444401652940007E-13, 0.3499999999999963696, 30.00000000000000000 ) ) ;
#293 = ADVANCED_FACE ( 'NONE', ( #68 ), #172, .T. ) ;
#294 = CARTESIAN_POINT ( 'NONE',  ( 2.793185071074506684E-14, -9.797174393178825657E-16, 8.000000000000000000 ) ) ;
#295 = AXIS2_PLACEMENT_3D ( 'NONE', #214, #233, #4 ) ;
#296 = DIRECTION ( 'NONE',  ( -3.491481338843133355E-15, 1.224646799147353207E-16, -1.000000000000000000 ) ) ;
#297 = DIRECTION ( 'NONE',  ( 3.491481338843133355E-15, -1.224646799147353207E-16, 1.000000000000000000 ) ) ;
#298 = CARTESIAN_POINT ( 'NONE',  ( 0.0000000000000000000, 0.0000000000000000000, 0.0000000000000000000 ) ) ;
#299 = CARTESIAN_POINT ( 'NONE',  ( 1.040461438975253740E-13, -3.649447461459112464E-15, 29.80000000000000071 ) ) ;
#300 = AXIS2_PLACEMENT_3D ( 'NONE', #112, #235, #193 ) ;
#301 = EDGE_LOOP ( 'NONE', ( #159, #304, #182, #267 ) ) ;
#302 = LINE ( 'NONE', #194, #136 ) ;
#303 = APPROVAL_ROLE ( '' ) ;
#304 = ORIENTED_EDGE ( 'NONE', *, *, #127, .T. ) ;
#305 = DATE_AND_TIME ( #124, #253 ) ;
#306 = EDGE_CURVE ( 'NONE', #212, #287, #196, .T. ) ;
#307 = CIRCLE ( 'NONE', #38, 0.5499999999999972689 ) ;
#308 = CARTESIAN_POINT ( 'NONE',  ( 1.040461438975253740E-13, 0.5499999999999963807, 29.80000000000000071 ) ) ;
#309 = CC_DESIGN_APPROVAL ( #49, ( #179 ) ) ;
#310 = CONICAL_SURFACE ( 'NONE', #185, 0.3500000000000000333, 0.7853981633974512766 ) ;
#311 = EDGE_LOOP ( 'NONE', ( #103, #104, #139 ) ) ;
#312 = EDGE_LOOP ( 'NONE', ( #22, #82 ) ) ;
#313 = DIRECTION ( 'NONE',  ( 4.275831445896958607E-31, 1.000000000000000000, 1.224646799147353207E-16 ) ) ;
#314 = DIRECTION ( 'NONE',  ( -3.491481338843133355E-15, 1.224646799147353207E-16, -1.000000000000000000 ) ) ;
#315 = FACE_OUTER_BOUND ( 'NONE', #312, .T. ) ;
#316 = CARTESIAN_POINT ( 'NONE',  ( 2.793185071074506684E-14, -9.797174393178825657E-16, 8.000000000000000000 ) ) ;
#317 = LINE ( 'NONE', #291, #285 ) ;
#318 = PLANE ( 'NONE',  #300 ) ;
#319 = CIRCLE ( 'NONE', #177, 0.3500000000000000333 ) ;
#320 = CC_DESIGN_APPROVAL ( #259, ( #72 ) ) ;
#321 = EDGE_CURVE ( 'NONE', #36, #26, #142, .T. ) ;
#322 = FACE_OUTER_BOUND ( 'NONE', #157, .T. ) ;
#323 = CARTESIAN_POINT ( 'NONE',  ( 2.351707295243314184E-31, 0.5499999999999969358, 6.735557395310404306E-17 ) ) ;
#324 = COORDINATED_UNIVERSAL_TIME_OFFSET ( 1, 0, .AHEAD. ) ;
#325 = ORIENTED_EDGE ( 'NONE', *, *, #127, .F. ) ;
#326 = CARTESIAN_POINT ( 'NONE',  ( 1.221197075172362102E-15, 0.5499999999999963807, 0.3304733404651596373 ) ) ;
#327 = PERSON_AND_ORGANIZATION_ROLE ( 'creator' ) ;
#328 = CIRCLE ( 'NONE', #295, 0.3500000000000000333 ) ;
#329 = ORIENTED_EDGE ( 'NONE', *, *, #173, .F. ) ;
#330 = PERSON_AND_ORGANIZATION ( #35, #223 ) ;
#331 = ORIENTED_EDGE ( 'NONE', *, *, #88, .T. ) ;
#332 = CARTESIAN_POINT ( 'NONE',  ( 2.793185071074506684E-14, 0.5499999999999963807, 8.000000000000000000 ) ) ;
#333 = APPROVAL_DATE_TIME ( #20, #49 ) ;
#334 = CARTESIAN_POINT ( 'NONE',  ( 1.047444401652940007E-13, 2.624579619658196075E-33, 30.00000000000000000 ) ) ;
#335 = DIRECTION ( 'NONE',  ( -3.491481338843133355E-15, 1.224646799147353207E-16, -1.000000000000000000 ) ) ;
#336 = DIRECTION ( 'NONE',  ( -2.468850131082257455E-15, 0.7071067811865497932, -0.7071067811865453523 ) ) ;
#337 = VERTEX_POINT ( 'NONE', #332 ) ;
ENDSEC;
END-ISO-10303-21;
