ISO-10303-21;
HEADER;
FILE_DESCRIPTION (( 'STEP AP203' ),
    '1' );
FILE_NAME ('257.step',
    '2021-09-03T07:21:35',
    ( '' ),
    ( '' ),
    'SwSTEP 2.0',
    'SolidWorks 2019',
    '' );
FILE_SCHEMA (( 'CONFIG_CONTROL_DESIGN' ));
ENDSEC;

DATA;
#1 = DIRECTION ( 'NONE',  ( 4.275831445896958607E-31, 1.000000000000000000, 1.224646799147353207E-16 ) ) ;
#2 = CARTESIAN_POINT ( 'NONE',  ( 1.047444401652940007E-13, 2.437109646825463875E-33, 30.00000000000000000 ) ) ;
#3 = ORIENTED_EDGE ( 'NONE', *, *, #77, .F. ) ;
#4 = ORIENTED_EDGE ( 'NONE', *, *, #17, .F. ) ;
#5 = AXIS2_PLACEMENT_3D ( 'NONE', #116, #39, #79 ) ;
#6 = VERTEX_POINT ( 'NONE', #274 ) ;
#7 = APPLICATION_PROTOCOL_DEFINITION ( 'international standard', 'config_control_design', 1994, #175 ) ;
#8 = FACE_OUTER_BOUND ( 'NONE', #124, .T. ) ;
#9 = ORIENTED_EDGE ( 'NONE', *, *, #335, .T. ) ;
#10 = DIRECTION ( 'NONE',  ( 0.0000000000000000000, 1.000000000000000000, 0.0000000000000000000 ) ) ;
#11 = AXIS2_PLACEMENT_3D ( 'NONE', #238, #52, #261 ) ;
#12 = DIRECTION ( 'NONE',  ( 0.0000000000000000000, 1.000000000000000000, 0.0000000000000000000 ) ) ;
#13 = CARTESIAN_POINT ( 'NONE',  ( 2.793185071074506684E-14, 3.936869429487342009E-33, 8.000000000000000000 ) ) ;
#14 = APPLICATION_CONTEXT ( 'configuration controlled 3d designs of mechanical parts and assemblies' ) ;
#15 = DIRECTION ( 'NONE',  ( 0.0000000000000000000, 1.000000000000000000, 0.0000000000000000000 ) ) ;
#16 = COORDINATED_UNIVERSAL_TIME_OFFSET ( 1, 0, .AHEAD. ) ;
#17 = EDGE_CURVE ( 'NONE', #96, #6, #194, .T. ) ;
#18 = DATE_AND_TIME ( #188, #142 ) ;
#19 = AXIS2_PLACEMENT_3D ( 'NONE', #144, #314, #10 ) ;
#20 = APPLICATION_PROTOCOL_DEFINITION ( 'international standard', 'config_control_design', 1994, #14 ) ;
#21 = CARTESIAN_POINT ( 'NONE',  ( 2.793185071074506684E-14, -9.797174393178825657E-16, 8.000000000000000000 ) ) ;
#22 = CARTESIAN_POINT ( 'NONE',  ( 1.458091639245511829E-14, -0.5249999999999983569, 8.000000000000000000 ) ) ;
#23 = ORIENTED_EDGE ( 'NONE', *, *, #177, .F. ) ;
#24 = PERSON_AND_ORGANIZATION_ROLE ( 'creator' ) ;
#25 = CC_DESIGN_APPROVAL ( #106, ( #153 ) ) ;
#26 = CYLINDRICAL_SURFACE ( 'NONE', #36, 0.5249999999999968026 ) ;
#27 = APPROVAL_DATE_TIME ( #53, #106 ) ;
#28 = PRODUCT_DEFINITION ( 'UNKNOWN', '', #173, #105 ) ;
#29 = CALENDAR_DATE ( 2021, 3, 9 ) ;
#30 = DIRECTION ( 'NONE',  ( -3.491481338843133355E-15, 1.224646799147353207E-16, -1.000000000000000000 ) ) ;
#31 = DIRECTION ( 'NONE',  ( 3.491481338843133355E-15, -1.224646799147353207E-16, 1.000000000000000000 ) ) ;
#32 = CARTESIAN_POINT ( 'NONE',  ( 1.040461438975253740E-13, 0.5249999999999963585, 29.80000000000000071 ) ) ;
#33 = CC_DESIGN_DATE_AND_TIME_ASSIGNMENT ( #265, #140, ( #153 ) ) ;
#34 = DIRECTION ( 'NONE',  ( 0.0000000000000000000, 0.0000000000000000000, 1.000000000000000000 ) ) ;
#35 = AXIS2_PLACEMENT_3D ( 'NONE', #148, #254, #12 ) ;
#36 = AXIS2_PLACEMENT_3D ( 'NONE', #243, #241, #1 ) ;
#37 = VERTEX_POINT ( 'NONE', #168 ) ;
#38 = ADVANCED_FACE ( 'NONE', ( #118 ), #80, .T. ) ;
#39 = DIRECTION ( 'NONE',  ( -3.491481338843133355E-15, 1.224646799147353207E-16, -1.000000000000000000 ) ) ;
#40 = CARTESIAN_POINT ( 'NONE',  ( 1.047444401652940007E-13, -3.673940397442059178E-15, 30.00000000000000000 ) ) ;
#41 = ORIENTED_EDGE ( 'NONE', *, *, #235, .T. ) ;
#42 = LINE ( 'NONE', #146, #252 ) ;
#43 = FACE_OUTER_BOUND ( 'NONE', #326, .T. ) ;
#44 = APPROVAL_ROLE ( '' ) ;
#45 = APPROVAL_ROLE ( '' ) ;
#46 = EDGE_LOOP ( 'NONE', ( #321, #4 ) ) ;
#47 = ORGANIZATION ( 'UNSPECIFIED', 'UNSPECIFIED', '' ) ;
#48 = EDGE_CURVE ( 'NONE', #96, #102, #323, .T. ) ;
#49 = EDGE_LOOP ( 'NONE', ( #160, #41, #170, #319 ) ) ;
#50 = UNCERTAINTY_MEASURE_WITH_UNIT (LENGTH_MEASURE( 1.000000000000000082E-05 ), #180, 'distance_accuracy_value', 'NONE');
#51 = FACE_OUTER_BOUND ( 'NONE', #181, .T. ) ;
#52 = DIRECTION ( 'NONE',  ( 3.491481338843133355E-15, -1.224646799147353207E-16, 1.000000000000000000 ) ) ;
#53 = DATE_AND_TIME ( #331, #94 ) ;
#54 = CARTESIAN_POINT ( 'NONE',  ( 0.0000000000000000000, 0.0000000000000000000, 0.0000000000000000000 ) ) ;
#55 = CONICAL_SURFACE ( 'NONE', #211, 0.5249999999999963585, 1.029744258676649649 ) ;
#56 = EDGE_CURVE ( 'NONE', #143, #206, #189, .T. ) ;
#57 = MANIFOLD_SOLID_BREP ( 'Corps-Déplacer/Copier1[2]', #286 ) ;
#58 = ORIENTED_EDGE ( 'NONE', *, *, #115, .T. ) ;
#59 = AXIS2_PLACEMENT_3D ( 'NONE', #149, #151, #15 ) ;
#60 = LOCAL_TIME ( 9, 21, 35.00000000000000000, #16 ) ;
#61 = DIRECTION ( 'NONE',  ( -3.491481338843133355E-15, 1.224646799147353207E-16, -1.000000000000000000 ) ) ;
#62 = CC_DESIGN_PERSON_AND_ORGANIZATION_ASSIGNMENT ( #137, #289, ( #173 ) ) ;
#63 = DIRECTION ( 'NONE',  ( -3.491481338843133355E-15, 1.224646799147353207E-16, -1.000000000000000000 ) ) ;
#64 = DIRECTION ( 'NONE',  ( -3.491481338843133355E-15, 1.224646799147353207E-16, -1.000000000000000000 ) ) ;
#65 = CARTESIAN_POINT ( 'NONE',  ( 0.0000000000000000000, 0.0000000000000000000, 0.0000000000000000000 ) ) ;
#66 = CARTESIAN_POINT ( 'NONE',  ( 1.047444401652940007E-13, -3.673940397442059178E-15, 30.00000000000000000 ) ) ;
#67 = VECTOR ( 'NONE', #139, 999.9999999999998863 ) ;
#68 = EDGE_CURVE ( 'NONE', #202, #143, #147, .T. ) ;
#69 = APPROVAL_PERSON_ORGANIZATION ( #203, #167, #45 ) ;
#70 = ORIENTED_EDGE ( 'NONE', *, *, #235, .F. ) ;
#71 = CONICAL_SURFACE ( 'NONE', #19, 0.3250000000000000666, 0.7853981633974512766 ) ;
#72 = FACE_OUTER_BOUND ( 'NONE', #301, .T. ) ;
#73 = ORIENTED_EDGE ( 'NONE', *, *, #150, .F. ) ;
#74 = DIRECTION ( 'NONE',  ( 0.0000000000000000000, 1.000000000000000000, 0.0000000000000000000 ) ) ;
#75 = ORIENTED_EDGE ( 'NONE', *, *, #177, .T. ) ;
#76 = PERSON_AND_ORGANIZATION ( #244, #47 ) ;
#77 = EDGE_CURVE ( 'NONE', #37, #202, #184, .T. ) ;
#78 = APPROVAL_ROLE ( '' ) ;
#79 = DIRECTION ( 'NONE',  ( 3.668437989309046175E-31, 1.000000000000000000, 1.032573497605249497E-16 ) ) ;
#80 = CYLINDRICAL_SURFACE ( 'NONE', #336, 0.5249999999999968026 ) ;
#81 = EDGE_CURVE ( 'NONE', #143, #202, #328, .T. ) ;
#82 = DIRECTION ( 'NONE',  ( 4.275831445896958607E-31, 1.000000000000000000, 1.224646799147352961E-16 ) ) ;
#83 = AXIS2_PLACEMENT_3D ( 'NONE', #312, #34, #114 ) ;
#84 = COORDINATED_UNIVERSAL_TIME_OFFSET ( 1, 0, .AHEAD. ) ;
#85 = CARTESIAN_POINT ( 'NONE',  ( 2.793185071074506684E-14, -9.797174393178825657E-16, 8.000000000000000000 ) ) ;
#86 = CARTESIAN_POINT ( 'NONE',  ( 1.101394160254746040E-15, -0.5249999999999963585, 0.3154518249894704418 ) ) ;
#87 = ORIENTED_EDGE ( 'NONE', *, *, #56, .T. ) ;
#88 = AXIS2_PLACEMENT_3D ( 'NONE', #65, #61, #166 ) ;
#89 = AXIS2_PLACEMENT_3D ( 'NONE', #85, #214, #264 ) ;
#90 = ADVANCED_BREP_SHAPE_REPRESENTATION ( '257', ( #285, #57, #83 ), #217 ) ;
#91 = CARTESIAN_POINT ( 'NONE',  ( 1.047444401652940007E-13, 0.3249999999999964029, 30.00000000000000000 ) ) ;
#92 = CARTESIAN_POINT ( 'NONE',  ( 1.047444401652940007E-13, -3.673940397442059178E-15, 30.00000000000000000 ) ) ;
#93 = AXIS2_PLACEMENT_3D ( 'NONE', #132, #121, #74 ) ;
#94 = LOCAL_TIME ( 9, 21, 35.00000000000000000, #84 ) ;
#95 = DIRECTION ( 'NONE',  ( 0.0000000000000000000, 1.000000000000000000, 0.0000000000000000000 ) ) ;
#96 = VERTEX_POINT ( 'NONE', #22 ) ;
#97 = DIRECTION ( 'NONE',  ( -2.468850131082257455E-15, 0.7071067811865497932, -0.7071067811865453523 ) ) ;
#98 = DATE_AND_TIME ( #99, #253 ) ;
#99 = CALENDAR_DATE ( 2021, 3, 9 ) ;
#100 = AXIS2_PLACEMENT_3D ( 'NONE', #272, #31, #248 ) ;
#101 = EDGE_CURVE ( 'NONE', #102, #250, #306, .T. ) ;
#102 = VERTEX_POINT ( 'NONE', #86 ) ;
#103 = CARTESIAN_POINT ( 'NONE',  ( 1.101394160254746040E-15, -0.5249999999999963585, 0.3154518249894704418 ) ) ;
#104 = VECTOR ( 'NONE', #256, 1000.000000000000000 ) ;
#105 = DESIGN_CONTEXT ( 'detailed design', #14, 'design' ) ;
#106 = APPROVAL ( #239, 'UNSPECIFIED' ) ;
#107 = DIRECTION ( 'NONE',  ( 3.491481338843133355E-15, -1.224646799147353207E-16, 1.000000000000000000 ) ) ;
#108 = PERSON_AND_ORGANIZATION ( #244, #47 ) ;
#109 = CC_DESIGN_APPROVAL ( #167, ( #173 ) ) ;
#110 = EDGE_CURVE ( 'NONE', #330, #250, #197, .T. ) ;
#111 = CYLINDRICAL_SURFACE ( 'NONE', #88, 0.5249999999999988010 ) ;
#112 = VECTOR ( 'NONE', #304, 1000.000000000000000 ) ;
#113 = CARTESIAN_POINT ( 'NONE',  ( 0.0000000000000000000, 0.0000000000000000000, 0.0000000000000000000 ) ) ;
#114 = DIRECTION ( 'NONE',  ( 1.000000000000000000, 0.0000000000000000000, 0.0000000000000000000 ) ) ;
#115 = EDGE_CURVE ( 'NONE', #330, #102, #246, .T. ) ;
#116 = CARTESIAN_POINT ( 'NONE',  ( 1.101394160254746237E-15, -3.863170677585460501E-17, 0.3154518249894704418 ) ) ;
#117 = CIRCLE ( 'NONE', #5, 0.5249999999999963585 ) ;
#118 = FACE_OUTER_BOUND ( 'NONE', #208, .T. ) ;
#119 = DIRECTION ( 'NONE',  ( 4.275831445896958607E-31, 1.000000000000000000, 1.224646799147353207E-16 ) ) ;
#120 = ADVANCED_FACE ( 'NONE', ( #134 ), #164, .T. ) ;
#121 = DIRECTION ( 'NONE',  ( -3.491481338843133355E-15, 1.224646799147353207E-16, -1.000000000000000000 ) ) ;
#122 = ORIENTED_EDGE ( 'NONE', *, *, #204, .F. ) ;
#123 = CARTESIAN_POINT ( 'NONE',  ( 0.0000000000000000000, 0.0000000000000000000, 0.0000000000000000000 ) ) ;
#124 = EDGE_LOOP ( 'NONE', ( #305, #152, #126, #23 ) ) ;
#125 = VECTOR ( 'NONE', #325, 1000.000000000000000 ) ;
#126 = ORIENTED_EDGE ( 'NONE', *, *, #81, .F. ) ;
#127 = CC_DESIGN_PERSON_AND_ORGANIZATION_ASSIGNMENT ( #163, #267, ( #173 ) ) ;
#128 = ORIENTED_EDGE ( 'NONE', *, *, #307, .T. ) ;
#129 = COORDINATED_UNIVERSAL_TIME_OFFSET ( 1, 0, .AHEAD. ) ;
#130 = CALENDAR_DATE ( 2021, 3, 9 ) ;
#131 = ORIENTED_EDGE ( 'NONE', *, *, #17, .T. ) ;
#132 = CARTESIAN_POINT ( 'NONE',  ( 1.040461438975253740E-13, -3.649447461459112464E-15, 29.80000000000000071 ) ) ;
#133 = ADVANCED_FACE ( 'NONE', ( #72 ), #111, .T. ) ;
#134 = FACE_OUTER_BOUND ( 'NONE', #251, .T. ) ;
#135 = EDGE_LOOP ( 'NONE', ( #209, #277 ) ) ;
#136 = SHAPE_DEFINITION_REPRESENTATION ( #176, #90 ) ;
#137 = PERSON_AND_ORGANIZATION ( #244, #47 ) ;
#138 = CC_DESIGN_PERSON_AND_ORGANIZATION_ASSIGNMENT ( #159, #334, ( #153 ) ) ;
#139 = DIRECTION ( 'NONE',  ( 1.903218546456022717E-15, 0.8571673007021097801, 0.5150380749100585964 ) ) ;
#140 = DATE_TIME_ROLE ( 'classification_date' ) ;
#141 = FACE_OUTER_BOUND ( 'NONE', #46, .T. ) ;
#142 = LOCAL_TIME ( 9, 21, 35.00000000000000000, #129 ) ;
#143 = VERTEX_POINT ( 'NONE', #32 ) ;
#144 = CARTESIAN_POINT ( 'NONE',  ( 1.047444401652940007E-13, -3.673940397442059178E-15, 30.00000000000000000 ) ) ;
#145 = DIRECTION ( 'NONE',  ( -3.491481338843133355E-15, 1.224646799147353207E-16, -1.000000000000000000 ) ) ;
#146 = CARTESIAN_POINT ( 'NONE',  ( 1.047444401652940007E-13, 0.3249999999999964029, 30.00000000000000000 ) ) ;
#147 = CIRCLE ( 'NONE', #93, 0.5250000000000000222 ) ;
#148 = CARTESIAN_POINT ( 'NONE',  ( 2.793185071074506684E-14, -9.797174393178825657E-16, 8.000000000000000000 ) ) ;
#149 = CARTESIAN_POINT ( 'NONE',  ( 1.040461438975253740E-13, -3.649447461459112464E-15, 29.80000000000000071 ) ) ;
#150 = EDGE_CURVE ( 'NONE', #6, #250, #247, .T. ) ;
#151 = DIRECTION ( 'NONE',  ( -3.491481338843133355E-15, 1.224646799147353207E-16, -1.000000000000000000 ) ) ;
#152 = ORIENTED_EDGE ( 'NONE', *, *, #77, .T. ) ;
#153 = SECURITY_CLASSIFICATION ( '', '', #242 ) ;
#154 = DIRECTION ( 'NONE',  ( -3.491481338843133355E-15, 1.224646799147353207E-16, -1.000000000000000000 ) ) ;
#155 = ORIENTED_EDGE ( 'NONE', *, *, #101, .T. ) ;
#156 = PERSON_AND_ORGANIZATION ( #244, #47 ) ;
#157 = DIRECTION ( 'NONE',  ( -3.491481338843133355E-15, 1.224646799147353207E-16, -1.000000000000000000 ) ) ;
#158 = VERTEX_POINT ( 'NONE', #91 ) ;
#159 = PERSON_AND_ORGANIZATION ( #244, #47 ) ;
#160 = ORIENTED_EDGE ( 'NONE', *, *, #81, .T. ) ;
#161 = ADVANCED_FACE ( 'NONE', ( #294 ), #71, .T. ) ;
#162 = DIRECTION ( 'NONE',  ( -3.668437989309046175E-31, -1.000000000000000000, -1.032573497605249497E-16 ) ) ;
#163 = PERSON_AND_ORGANIZATION ( #244, #47 ) ;
#164 = CONICAL_SURFACE ( 'NONE', #11, 0.5249999999999963585, 1.029744258676649649 ) ;
#165 = CIRCLE ( 'NONE', #257, 0.3250000000000000666 ) ;
#166 = DIRECTION ( 'NONE',  ( 4.275831445896958607E-31, 1.000000000000000000, 1.224646799147352961E-16 ) ) ;
#167 = APPROVAL ( #299, 'UNSPECIFIED' ) ;
#168 = CARTESIAN_POINT ( 'NONE',  ( 1.044473395203734390E-13, -0.3250000000000037859, 30.00000000000000000 ) ) ;
#169 = DIRECTION ( 'NONE',  ( 0.0000000000000000000, 1.000000000000000000, 0.0000000000000000000 ) ) ;
#170 = ORIENTED_EDGE ( 'NONE', *, *, #335, .F. ) ;
#171 = AXIS2_PLACEMENT_3D ( 'NONE', #318, #30, #308 ) ;
#172 = DIRECTION ( 'NONE',  ( 0.0000000000000000000, 1.000000000000000000, 0.0000000000000000000 ) ) ;
#173 = PRODUCT_DEFINITION_FORMATION_WITH_SPECIFIED_SOURCE ( 'ANY', '', #320, .NOT_KNOWN. ) ;
#174 = CARTESIAN_POINT ( 'NONE',  ( 2.244811509095889737E-31, 0.5249999999999968026, 6.429395695523565449E-17 ) ) ;
#175 = APPLICATION_CONTEXT ( 'configuration controlled 3d designs of mechanical parts and assemblies' ) ;
#176 = PRODUCT_DEFINITION_SHAPE ( 'NONE', 'NONE',  #28 ) ;
#177 = EDGE_CURVE ( 'NONE', #158, #143, #42, .T. ) ;
#178 = ORIENTED_EDGE ( 'NONE', *, *, #307, .F. ) ;
#179 = VECTOR ( 'NONE', #258, 1000.000000000000114 ) ;
#180 =( LENGTH_UNIT ( ) NAMED_UNIT ( * ) SI_UNIT ( .MILLI., .METRE. ) );
#181 = EDGE_LOOP ( 'NONE', ( #218, #187, #122, #73 ) ) ;
#182 = APPROVAL_PERSON_ORGANIZATION ( #156, #303, #44 ) ;
#183 = EDGE_LOOP ( 'NONE', ( #222, #276, #324 ) ) ;
#184 = LINE ( 'NONE', #230, #179 ) ;
#185 = ORIENTED_EDGE ( 'NONE', *, *, #332, .T. ) ;
#186 = DIRECTION ( 'NONE',  ( 0.0000000000000000000, 1.000000000000000000, 0.0000000000000000000 ) ) ;
#187 = ORIENTED_EDGE ( 'NONE', *, *, #48, .T. ) ;
#188 = CALENDAR_DATE ( 2021, 3, 9 ) ;
#189 = LINE ( 'NONE', #213, #104 ) ;
#190 = EDGE_LOOP ( 'NONE', ( #3, #185, #75, #224 ) ) ;
#191 = PLANE ( 'NONE',  #100 ) ;
#192 = ADVANCED_FACE ( 'NONE', ( #43 ), #255, .F. ) ;
#193 = CARTESIAN_POINT ( 'NONE',  ( 1.101394160254746237E-15, -3.863170677585460501E-17, 0.3154518249894704418 ) ) ;
#194 = CIRCLE ( 'NONE', #35, 0.5249999999999973577 ) ;
#195 = CONICAL_SURFACE ( 'NONE', #337, 0.3250000000000000666, 0.7853981633974512766 ) ;
#196 = CC_DESIGN_PERSON_AND_ORGANIZATION_ASSIGNMENT ( #76, #229, ( #320 ) ) ;
#197 = LINE ( 'NONE', #288, #67 ) ;
#198 = CC_DESIGN_APPROVAL ( #303, ( #28 ) ) ;
#199 =( NAMED_UNIT ( * ) SI_UNIT ( $, .STERADIAN. ) SOLID_ANGLE_UNIT ( ) );
#200 = LOCAL_TIME ( 9, 21, 35.00000000000000000, #262 ) ;
#201 = ADVANCED_FACE ( 'NONE', ( #298 ), #55, .T. ) ;
#202 = VERTEX_POINT ( 'NONE', #266 ) ;
#203 = PERSON_AND_ORGANIZATION ( #244, #47 ) ;
#204 = EDGE_CURVE ( 'NONE', #250, #102, #117, .T. ) ;
#205 = CIRCLE ( 'NONE', #270, 0.3250000000000000666 ) ;
#206 = VERTEX_POINT ( 'NONE', #281 ) ;
#207 = DIRECTION ( 'NONE',  ( -3.491481338843133355E-15, 1.224646799147353207E-16, -1.000000000000000000 ) ) ;
#208 = EDGE_LOOP ( 'NONE', ( #302, #131, #282, #311 ) ) ;
#209 = ORIENTED_EDGE ( 'NONE', *, *, #290, .F. ) ;
#210 = CC_DESIGN_PERSON_AND_ORGANIZATION_ASSIGNMENT ( #231, #24, ( #28 ) ) ;
#211 = AXIS2_PLACEMENT_3D ( 'NONE', #193, #107, #162 ) ;
#212 = FACE_OUTER_BOUND ( 'NONE', #49, .T. ) ;
#213 = CARTESIAN_POINT ( 'NONE',  ( 2.244811509095898057E-31, 0.5249999999999988010, 6.429395695523588869E-17 ) ) ;
#214 = DIRECTION ( 'NONE',  ( -3.491481338843133355E-15, 1.224646799147353207E-16, -1.000000000000000000 ) ) ;
#215 = DIRECTION ( 'NONE',  ( 4.275831445896958607E-31, 1.000000000000000000, 1.224646799147353207E-16 ) ) ;
#216 = PRODUCT_RELATED_PRODUCT_CATEGORY ( 'detail', '', ( #320 ) ) ;
#217 =( GEOMETRIC_REPRESENTATION_CONTEXT ( 3 ) GLOBAL_UNCERTAINTY_ASSIGNED_CONTEXT ( ( #50 ) ) GLOBAL_UNIT_ASSIGNED_CONTEXT ( ( #180, #240, #199 ) ) REPRESENTATION_CONTEXT ( 'NONE', 'WORKASPACE' ) );
#218 = ORIENTED_EDGE ( 'NONE', *, *, #279, .T. ) ;
#219 = ORIENTED_EDGE ( 'NONE', *, *, #110, .F. ) ;
#220 = MECHANICAL_CONTEXT ( 'NONE', #175, 'mechanical' ) ;
#221 = FACE_OUTER_BOUND ( 'NONE', #135, .T. ) ;
#222 = ORIENTED_EDGE ( 'NONE', *, *, #115, .F. ) ;
#223 = ADVANCED_FACE ( 'NONE', ( #8 ), #195, .T. ) ;
#224 = ORIENTED_EDGE ( 'NONE', *, *, #68, .F. ) ;
#225 = PLANE ( 'NONE',  #300 ) ;
#226 = DIRECTION ( 'NONE',  ( -3.491481338843133355E-15, 1.224646799147353207E-16, -1.000000000000000000 ) ) ;
#227 = COORDINATED_UNIVERSAL_TIME_OFFSET ( 1, 0, .AHEAD. ) ;
#228 = DIRECTION ( 'NONE',  ( 3.491481338843133355E-15, -1.224646799147353207E-16, 1.000000000000000000 ) ) ;
#229 = PERSON_AND_ORGANIZATION_ROLE ( 'design_owner' ) ;
#230 = CARTESIAN_POINT ( 'NONE',  ( 1.047842411862662877E-13, -0.3250000000000037859, 30.00000000000000000 ) ) ;
#231 = PERSON_AND_ORGANIZATION ( #244, #47 ) ;
#232 = AXIS2_PLACEMENT_3D ( 'NONE', #13, #228, #317 ) ;
#233 = DATE_AND_TIME ( #130, #60 ) ;
#234 = CARTESIAN_POINT ( 'NONE',  ( 6.429395695523543263E-17, -0.5249999999999968026, -6.429395695523587636E-17 ) ) ;
#235 = EDGE_CURVE ( 'NONE', #202, #271, #273, .T. ) ;
#236 = CLOSED_SHELL ( 'NONE', ( #223, #260, #192, #133, #161, #269 ) ) ;
#237 = AXIS2_PLACEMENT_3D ( 'NONE', #54, #154, #82 ) ;
#238 = CARTESIAN_POINT ( 'NONE',  ( 1.101394160254746237E-15, -3.863170677585460501E-17, 0.3154518249894704418 ) ) ;
#239 = APPROVAL_STATUS ( 'not_yet_approved' ) ;
#240 =( NAMED_UNIT ( * ) PLANE_ANGLE_UNIT ( ) SI_UNIT ( $, .RADIAN. ) );
#241 = DIRECTION ( 'NONE',  ( -3.491481338843133355E-15, 1.224646799147353207E-16, -1.000000000000000000 ) ) ;
#242 = SECURITY_CLASSIFICATION_LEVEL ( 'unclassified' ) ;
#243 = CARTESIAN_POINT ( 'NONE',  ( 0.0000000000000000000, 0.0000000000000000000, 0.0000000000000000000 ) ) ;
#244 = PERSON ( 'UNSPECIFIED', 'UNSPECIFIED', 'UNSPECIFIED', ('UNSPECIFIED'), ('UNSPECIFIED'), ('UNSPECIFIED') ) ;
#245 = APPROVAL_PERSON_ORGANIZATION ( #108, #106, #78 ) ;
#246 = LINE ( 'NONE', #103, #313 ) ;
#247 = LINE ( 'NONE', #174, #268 ) ;
#248 = DIRECTION ( 'NONE',  ( -4.275831445896958607E-31, -1.000000000000000000, -1.224646799147353207E-16 ) ) ;
#249 = AXIS2_PLACEMENT_3D ( 'NONE', #21, #207, #186 ) ;
#250 = VERTEX_POINT ( 'NONE', #327 ) ;
#251 = EDGE_LOOP ( 'NONE', ( #219, #58, #155 ) ) ;
#252 = VECTOR ( 'NONE', #97, 1000.000000000000114 ) ;
#253 = LOCAL_TIME ( 9, 21, 35.00000000000000000, #227 ) ;
#254 = DIRECTION ( 'NONE',  ( -3.491481338843133355E-15, 1.224646799147353207E-16, -1.000000000000000000 ) ) ;
#255 = PLANE ( 'NONE',  #232 ) ;
#256 = DIRECTION ( 'NONE',  ( -3.491481338843133355E-15, 1.224646799147353207E-16, -1.000000000000000000 ) ) ;
#257 = AXIS2_PLACEMENT_3D ( 'NONE', #40, #145, #309 ) ;
#258 = DIRECTION ( 'NONE',  ( -2.382254525458708792E-15, -0.7071067811865495711, -0.7071067811865455743 ) ) ;
#259 = APPROVAL_DATE_TIME ( #18, #303 ) ;
#260 = ADVANCED_FACE ( 'NONE', ( #212 ), #284, .T. ) ;
#261 = DIRECTION ( 'NONE',  ( -3.668437989309046175E-31, -1.000000000000000000, -1.032573497605249497E-16 ) ) ;
#262 = COORDINATED_UNIVERSAL_TIME_OFFSET ( 1, 0, .AHEAD. ) ;
#263 = APPROVAL_DATE_TIME ( #233, #167 ) ;
#264 = DIRECTION ( 'NONE',  ( 0.0000000000000000000, 1.000000000000000000, 0.0000000000000000000 ) ) ;
#265 = DATE_AND_TIME ( #29, #200 ) ;
#266 = CARTESIAN_POINT ( 'NONE',  ( 6.605329126109026641E-14, -0.5250000000000037970, 29.80000000000000071 ) ) ;
#267 = PERSON_AND_ORGANIZATION_ROLE ( 'design_supplier' ) ;
#268 = VECTOR ( 'NONE', #64, 1000.000000000000000 ) ;
#269 = ADVANCED_FACE ( 'NONE', ( #221 ), #225, .F. ) ;
#270 = AXIS2_PLACEMENT_3D ( 'NONE', #66, #63, #172 ) ;
#271 = VERTEX_POINT ( 'NONE', #322 ) ;
#272 = CARTESIAN_POINT ( 'NONE',  ( 2.793185071074506684E-14, 3.936869429487342009E-33, 8.000000000000000000 ) ) ;
#273 = LINE ( 'NONE', #297, #112 ) ;
#274 = CARTESIAN_POINT ( 'NONE',  ( 2.793185071074506684E-14, 0.5249999999999963585, 8.000000000000000000 ) ) ;
#275 = CIRCLE ( 'NONE', #249, 0.5249999999999973577 ) ;
#276 = ORIENTED_EDGE ( 'NONE', *, *, #110, .T. ) ;
#277 = ORIENTED_EDGE ( 'NONE', *, *, #332, .F. ) ;
#278 = DIRECTION ( 'NONE',  ( -3.491481338843133355E-15, 1.224646799147353207E-16, -1.000000000000000000 ) ) ;
#279 = EDGE_CURVE ( 'NONE', #6, #96, #275, .T. ) ;
#280 = CC_DESIGN_SECURITY_CLASSIFICATION ( #153, ( #173 ) ) ;
#281 = CARTESIAN_POINT ( 'NONE',  ( 2.793185071074506684E-14, 0.5249999999999963585, 8.000000000000000000 ) ) ;
#282 = ORIENTED_EDGE ( 'NONE', *, *, #150, .T. ) ;
#283 = ADVANCED_FACE ( 'NONE', ( #51 ), #26, .T. ) ;
#284 = CYLINDRICAL_SURFACE ( 'NONE', #237, 0.5249999999999988010 ) ;
#285 = MANIFOLD_SOLID_BREP ( 'Corps-Déplacer/Copier1[1]', #236 ) ;
#286 = CLOSED_SHELL ( 'NONE', ( #283, #201, #120, #38, #316 ) ) ;
#287 = AXIS2_PLACEMENT_3D ( 'NONE', #293, #226, #95 ) ;
#288 = CARTESIAN_POINT ( 'NONE',  ( 1.165688117209981953E-15, 0.5249999999999963585, 0.3154518249894704973 ) ) ;
#289 = PERSON_AND_ORGANIZATION_ROLE ( 'creator' ) ;
#290 = EDGE_CURVE ( 'NONE', #158, #37, #205, .T. ) ;
#291 = CC_DESIGN_DATE_AND_TIME_ASSIGNMENT ( #98, #296, ( #28 ) ) ;
#292 = ORIENTED_EDGE ( 'NONE', *, *, #68, .T. ) ;
#293 = CARTESIAN_POINT ( 'NONE',  ( 2.793185071074506684E-14, -9.797174393178825657E-16, 8.000000000000000000 ) ) ;
#294 = FACE_OUTER_BOUND ( 'NONE', #190, .T. ) ;
#295 = CIRCLE ( 'NONE', #89, 0.5249999999999973577 ) ;
#296 = DATE_TIME_ROLE ( 'creation_date' ) ;
#297 = CARTESIAN_POINT ( 'NONE',  ( 6.429395695523567914E-17, -0.5249999999999988010, -6.429395695523611055E-17 ) ) ;
#298 = FACE_OUTER_BOUND ( 'NONE', #183, .T. ) ;
#299 = APPROVAL_STATUS ( 'not_yet_approved' ) ;
#300 = AXIS2_PLACEMENT_3D ( 'NONE', #2, #157, #119 ) ;
#301 = EDGE_LOOP ( 'NONE', ( #70, #292, #87, #178 ) ) ;
#302 = ORIENTED_EDGE ( 'NONE', *, *, #48, .F. ) ;
#303 = APPROVAL ( #315, 'UNSPECIFIED' ) ;
#304 = DIRECTION ( 'NONE',  ( -3.491481338843133355E-15, 1.224646799147353207E-16, -1.000000000000000000 ) ) ;
#305 = ORIENTED_EDGE ( 'NONE', *, *, #290, .T. ) ;
#306 = CIRCLE ( 'NONE', #171, 0.5249999999999963585 ) ;
#307 = EDGE_CURVE ( 'NONE', #271, #206, #295, .T. ) ;
#308 = DIRECTION ( 'NONE',  ( 3.668437989309046175E-31, 1.000000000000000000, 1.032573497605249497E-16 ) ) ;
#309 = DIRECTION ( 'NONE',  ( 0.0000000000000000000, 1.000000000000000000, 0.0000000000000000000 ) ) ;
#310 = DIRECTION ( 'NONE',  ( -3.491481338843133355E-15, 1.224646799147353207E-16, -1.000000000000000000 ) ) ;
#311 = ORIENTED_EDGE ( 'NONE', *, *, #101, .F. ) ;
#312 = CARTESIAN_POINT ( 'NONE',  ( 0.0000000000000000000, 0.0000000000000000000, 0.0000000000000000000 ) ) ;
#313 = VECTOR ( 'NONE', #333, 1000.000000000000000 ) ;
#314 = DIRECTION ( 'NONE',  ( -3.491481338843133355E-15, 1.224646799147353207E-16, -1.000000000000000000 ) ) ;
#315 = APPROVAL_STATUS ( 'not_yet_approved' ) ;
#316 = ADVANCED_FACE ( 'NONE', ( #141 ), #191, .T. ) ;
#317 = DIRECTION ( 'NONE',  ( -4.275831445896958607E-31, -1.000000000000000000, -1.224646799147353207E-16 ) ) ;
#318 = CARTESIAN_POINT ( 'NONE',  ( 1.101394160254746237E-15, -3.863170677585460501E-17, 0.3154518249894704418 ) ) ;
#319 = ORIENTED_EDGE ( 'NONE', *, *, #56, .F. ) ;
#320 = PRODUCT ( '257', '257', '', ( #220 ) ) ;
#321 = ORIENTED_EDGE ( 'NONE', *, *, #279, .F. ) ;
#322 = CARTESIAN_POINT ( 'NONE',  ( 6.605329126109040525E-14, -0.5249999999999983569, 8.000000000000000000 ) ) ;
#323 = LINE ( 'NONE', #234, #125 ) ;
#324 = ORIENTED_EDGE ( 'NONE', *, *, #204, .T. ) ;
#325 = DIRECTION ( 'NONE',  ( -3.491481338843133355E-15, 1.224646799147353207E-16, -1.000000000000000000 ) ) ;
#326 = EDGE_LOOP ( 'NONE', ( #9, #128 ) ) ;
#327 = CARTESIAN_POINT ( 'NONE',  ( 1.165688117209981953E-15, 0.5249999999999963585, 0.3154518249894704973 ) ) ;
#328 = CIRCLE ( 'NONE', #59, 0.5250000000000000222 ) ;
#329 = CIRCLE ( 'NONE', #287, 0.5249999999999973577 ) ;
#330 = VERTEX_POINT ( 'NONE', #113 ) ;
#331 = CALENDAR_DATE ( 2021, 3, 9 ) ;
#332 = EDGE_CURVE ( 'NONE', #37, #158, #165, .T. ) ;
#333 = DIRECTION ( 'NONE',  ( 1.798245827342160317E-15, -0.8571673007021098911, 0.5150380749100582634 ) ) ;
#334 = PERSON_AND_ORGANIZATION_ROLE ( 'classification_officer' ) ;
#335 = EDGE_CURVE ( 'NONE', #206, #271, #329, .T. ) ;
#336 = AXIS2_PLACEMENT_3D ( 'NONE', #123, #278, #215 ) ;
#337 = AXIS2_PLACEMENT_3D ( 'NONE', #92, #310, #169 ) ;
ENDSEC;
END-ISO-10303-21;
