ISO-10303-21;
HEADER;
FILE_DESCRIPTION (( 'STEP AP203' ),
    '1' );
FILE_NAME ('25663.step',
    '2021-10-07T13:46:29',
    ( '' ),
    ( '' ),
    'SwSTEP 2.0',
    'SolidWorks 2019',
    '' );
FILE_SCHEMA (( 'CONFIG_CONTROL_DESIGN' ));
ENDSEC;

DATA;
#1 = CIRCLE ( 'NONE', #97, 0.6399999999999997913 ) ;
#2 = VERTEX_POINT ( 'NONE', #63 ) ;
#3 = MECHANICAL_CONTEXT ( 'NONE', #118, 'mechanical' ) ;
#4 = CC_DESIGN_PERSON_AND_ORGANIZATION_ASSIGNMENT ( #68, #215, ( #70 ) ) ;
#5 = DATE_AND_TIME ( #155, #186 ) ;
#6 = CARTESIAN_POINT ( 'NONE',  ( 3.491481338843133355E-14, 4.799231304517924639E-33, 10.00000000000000000 ) ) ;
#7 = APPROVAL_STATUS ( 'not_yet_approved' ) ;
#8 =( LENGTH_UNIT ( ) NAMED_UNIT ( * ) SI_UNIT ( .MILLI., .METRE. ) );
#9 = EDGE_LOOP ( 'NONE', ( #23 ) ) ;
#10 = CARTESIAN_POINT ( 'NONE',  ( 0.0000000000000000000, 0.0000000000000000000, 0.0000000000000000000 ) ) ;
#11 = CALENDAR_DATE ( 2021, 7, 10 ) ;
#12 = DIRECTION ( 'NONE',  ( 0.0000000000000000000, 1.000000000000000000, 0.0000000000000000000 ) ) ;
#13 = PLANE ( 'NONE',  #127 ) ;
#14 = APPROVAL ( #7, 'UNSPECIFIED' ) ;
#15 = CC_DESIGN_PERSON_AND_ORGANIZATION_ASSIGNMENT ( #89, #54, ( #99 ) ) ;
#16 = SECURITY_CLASSIFICATION ( '', '', #39 ) ;
#17 = AXIS2_PLACEMENT_3D ( 'NONE', #126, #111, #88 ) ;
#18 = DIRECTION ( 'NONE',  ( 4.275831445896958607E-31, 1.000000000000000000, 1.224646799147353207E-16 ) ) ;
#19 = COORDINATED_UNIVERSAL_TIME_OFFSET ( 1, 0, .AHEAD. ) ;
#20 = DIRECTION ( 'NONE',  ( 0.0000000000000000000, 0.0000000000000000000, 1.000000000000000000 ) ) ;
#21 = DIRECTION ( 'NONE',  ( 0.0000000000000000000, 1.000000000000000000, 0.0000000000000000000 ) ) ;
#22 = AXIS2_PLACEMENT_3D ( 'NONE', #156, #124, #65 ) ;
#23 = ORIENTED_EDGE ( 'NONE', *, *, #80, .T. ) ;
#24 = CC_DESIGN_PERSON_AND_ORGANIZATION_ASSIGNMENT ( #94, #213, ( #16 ) ) ;
#25 = EDGE_CURVE ( 'NONE', #135, #135, #1, .T. ) ;
#26 = EDGE_LOOP ( 'NONE', ( #140 ) ) ;
#27 = DIRECTION ( 'NONE',  ( -3.491481338843133355E-15, 1.224646799147353207E-16, -1.000000000000000000 ) ) ;
#28 = AXIS2_PLACEMENT_3D ( 'NONE', #6, #109, #147 ) ;
#29 = ADVANCED_FACE ( 'NONE', ( #202, #199 ), #117, .T. ) ;
#30 =( GEOMETRIC_REPRESENTATION_CONTEXT ( 3 ) GLOBAL_UNCERTAINTY_ASSIGNED_CONTEXT ( ( #220 ) ) GLOBAL_UNIT_ASSIGNED_CONTEXT ( ( #8, #217, #34 ) ) REPRESENTATION_CONTEXT ( 'NONE', 'WORKASPACE' ) );
#31 = AXIS2_PLACEMENT_3D ( 'NONE', #92, #158, #96 ) ;
#32 = VERTEX_POINT ( 'NONE', #171 ) ;
#33 = VERTEX_POINT ( 'NONE', #134 ) ;
#34 =( NAMED_UNIT ( * ) SI_UNIT ( $, .STERADIAN. ) SOLID_ANGLE_UNIT ( ) );
#35 = ORIENTED_EDGE ( 'NONE', *, *, #216, .F. ) ;
#36 = AXIS2_PLACEMENT_3D ( 'NONE', #160, #218, #56 ) ;
#37 = DATE_TIME_ROLE ( 'creation_date' ) ;
#38 = FACE_OUTER_BOUND ( 'NONE', #26, .T. ) ;
#39 = SECURITY_CLASSIFICATION_LEVEL ( 'unclassified' ) ;
#40 = APPROVAL_ROLE ( '' ) ;
#41 = ADVANCED_BREP_SHAPE_REPRESENTATION ( '25663', ( #151, #78, #184 ), #30 ) ;
#42 = FACE_OUTER_BOUND ( 'NONE', #174, .T. ) ;
#43 = AXIS2_PLACEMENT_3D ( 'NONE', #196, #219, #73 ) ;
#44 = ORIENTED_EDGE ( 'NONE', *, *, #216, .T. ) ;
#45 = ORIENTED_EDGE ( 'NONE', *, *, #53, .T. ) ;
#46 = LOCAL_TIME ( 15, 46, 29.00000000000000000, #106 ) ;
#47 = DIRECTION ( 'NONE',  ( 0.0000000000000000000, 1.000000000000000000, 0.0000000000000000000 ) ) ;
#48 = ORGANIZATION ( 'UNSPECIFIED', 'UNSPECIFIED', '' ) ;
#49 = ORIENTED_EDGE ( 'NONE', *, *, #25, .F. ) ;
#50 = CALENDAR_DATE ( 2021, 7, 10 ) ;
#51 = DIRECTION ( 'NONE',  ( 0.0000000000000000000, 1.000000000000000000, 0.0000000000000000000 ) ) ;
#52 = CC_DESIGN_DATE_AND_TIME_ASSIGNMENT ( #146, #105, ( #16 ) ) ;
#53 = EDGE_CURVE ( 'NONE', #33, #33, #91, .T. ) ;
#54 = PERSON_AND_ORGANIZATION_ROLE ( 'creator' ) ;
#55 = CARTESIAN_POINT ( 'NONE',  ( 3.558002992641237188E-14, 0.7499999999999963363, 10.19052558883257475 ) ) ;
#56 = DIRECTION ( 'NONE',  ( 3.009265538105059524E-31, 1.000000000000000000, 8.470329472543013251E-17 ) ) ;
#57 = DATE_AND_TIME ( #190, #46 ) ;
#58 = ORIENTED_EDGE ( 'NONE', *, *, #76, .T. ) ;
#59 = APPROVAL_PERSON_ORGANIZATION ( #123, #172, #144 ) ;
#60 = PLANE ( 'NONE',  #167 ) ;
#61 = CIRCLE ( 'NONE', #36, 0.6399999999999992362 ) ;
#62 = CONICAL_SURFACE ( 'NONE', #43, 0.6399999999999992362, 1.029744258676649649 ) ;
#63 = CARTESIAN_POINT ( 'NONE',  ( 3.491481338843133355E-14, 0.6399999999999986811, 10.00000000000000000 ) ) ;
#64 = CARTESIAN_POINT ( 'NONE',  ( 0.0000000000000000000, 0.0000000000000000000, 0.0000000000000000000 ) ) ;
#65 = DIRECTION ( 'NONE',  ( 0.0000000000000000000, 1.000000000000000000, 0.0000000000000000000 ) ) ;
#66 = APPROVAL_DATE_TIME ( #5, #172 ) ;
#67 = CC_DESIGN_APPROVAL ( #82, ( #16 ) ) ;
#68 = PERSON_AND_ORGANIZATION ( #207, #48 ) ;
#69 = CARTESIAN_POINT ( 'NONE',  ( 1.047444401652940007E-13, -3.673940397442059178E-15, 30.00000000000000000 ) ) ;
#70 = PRODUCT ( '25663', '25663', '', ( #3 ) ) ;
#71 = PERSON_AND_ORGANIZATION_ROLE ( 'design_supplier' ) ;
#72 = FACE_OUTER_BOUND ( 'NONE', #139, .T. ) ;
#73 = DIRECTION ( 'NONE',  ( -3.009265538105059524E-31, -1.000000000000000000, -8.470329472543013251E-17 ) ) ;
#74 = CONICAL_SURFACE ( 'NONE', #201, 0.5500000000000001554, 0.7853981633974510546 ) ;
#75 = CARTESIAN_POINT ( 'NONE',  ( 1.047444401652940007E-13, 4.124339402320053683E-33, 30.00000000000000000 ) ) ;
#76 = EDGE_CURVE ( 'NONE', #32, #32, #61, .T. ) ;
#77 = DIRECTION ( 'NONE',  ( -4.275831445896958607E-31, -1.000000000000000000, -1.224646799147353207E-16 ) ) ;
#78 = MANIFOLD_SOLID_BREP ( 'Corps-Déplacer/Copier1[2]', #187 ) ;
#79 = FACE_OUTER_BOUND ( 'NONE', #208, .T. ) ;
#80 = EDGE_CURVE ( 'NONE', #188, #188, #136, .T. ) ;
#81 = CARTESIAN_POINT ( 'NONE',  ( 3.491481338843133355E-14, 0.6399999999999986811, 10.00000000000000000 ) ) ;
#82 = APPROVAL ( #120, 'UNSPECIFIED' ) ;
#83 = ORIENTED_EDGE ( 'NONE', *, *, #25, .T. ) ;
#84 = CC_DESIGN_APPROVAL ( #172, ( #214 ) ) ;
#85 = APPROVAL_DATE_TIME ( #103, #14 ) ;
#86 = FACE_OUTER_BOUND ( 'NONE', #183, .T. ) ;
#87 = APPROVAL_STATUS ( 'not_yet_approved' ) ;
#88 = DIRECTION ( 'NONE',  ( 4.275831445896959482E-31, 1.000000000000000000, 1.224646799147353207E-16 ) ) ;
#89 = PERSON_AND_ORGANIZATION ( #207, #48 ) ;
#90 = DIRECTION ( 'NONE',  ( -3.491481338843133355E-15, 1.224646799147353207E-16, -1.000000000000000000 ) ) ;
#91 = CIRCLE ( 'NONE', #122, 0.5500000000000001554 ) ;
#92 = CARTESIAN_POINT ( 'NONE',  ( 3.558002992641237188E-14, -1.247979454399301074E-15, 10.19052558883257475 ) ) ;
#93 = CYLINDRICAL_SURFACE ( 'NONE', #17, 0.7499999999999987788 ) ;
#94 = PERSON_AND_ORGANIZATION ( #207, #48 ) ;
#95 = DIRECTION ( 'NONE',  ( -3.491481338843133355E-15, 1.224646799147353207E-16, -1.000000000000000000 ) ) ;
#96 = DIRECTION ( 'NONE',  ( 0.0000000000000000000, -1.000000000000000000, 0.0000000000000000000 ) ) ;
#97 = AXIS2_PLACEMENT_3D ( 'NONE', #178, #112, #21 ) ;
#98 = ADVANCED_FACE ( 'NONE', ( #72, #163 ), #93, .T. ) ;
#99 = PRODUCT_DEFINITION ( 'UNKNOWN', '', #214, #197 ) ;
#100 = DIRECTION ( 'NONE',  ( 4.275831445896958607E-31, 1.000000000000000000, 1.224646799147353207E-16 ) ) ;
#101 = EDGE_LOOP ( 'NONE', ( #182 ) ) ;
#102 = CIRCLE ( 'NONE', #150, 0.7499999999999976685 ) ;
#103 = DATE_AND_TIME ( #50, #164 ) ;
#104 = ORIENTED_EDGE ( 'NONE', *, *, #113, .F. ) ;
#105 = DATE_TIME_ROLE ( 'classification_date' ) ;
#106 = COORDINATED_UNIVERSAL_TIME_OFFSET ( 1, 0, .AHEAD. ) ;
#107 = CC_DESIGN_DATE_AND_TIME_ASSIGNMENT ( #192, #37, ( #99 ) ) ;
#108 = CARTESIAN_POINT ( 'NONE',  ( 1.040461438975253740E-13, -3.649447461459112464E-15, 29.80000000000000071 ) ) ;
#109 = DIRECTION ( 'NONE',  ( 3.491481338843133355E-15, -1.224646799147353207E-16, 1.000000000000000000 ) ) ;
#110 = EDGE_LOOP ( 'NONE', ( #152 ) ) ;
#111 = DIRECTION ( 'NONE',  ( -3.491481338843133355E-15, 1.224646799147353207E-16, -1.000000000000000000 ) ) ;
#112 = DIRECTION ( 'NONE',  ( -3.491481338843133355E-15, 1.224646799147353207E-16, -1.000000000000000000 ) ) ;
#113 = EDGE_CURVE ( 'NONE', #2, #2, #169, .T. ) ;
#114 = AXIS2_PLACEMENT_3D ( 'NONE', #108, #181, #12 ) ;
#115 = FACE_OUTER_BOUND ( 'NONE', #110, .T. ) ;
#116 = LOCAL_TIME ( 15, 46, 29.00000000000000000, #19 ) ;
#117 = CONICAL_SURFACE ( 'NONE', #31, 0.7499999999999976685, 0.5235987755982932645 ) ;
#118 = APPLICATION_CONTEXT ( 'configuration controlled 3d designs of mechanical parts and assemblies' ) ;
#119 = CLOSED_SHELL ( 'NONE', ( #209, #29, #98, #180, #191 ) ) ;
#120 = APPROVAL_STATUS ( 'not_yet_approved' ) ;
#121 = CALENDAR_DATE ( 2021, 7, 10 ) ;
#122 = AXIS2_PLACEMENT_3D ( 'NONE', #69, #95, #162 ) ;
#123 = PERSON_AND_ORGANIZATION ( #207, #48 ) ;
#124 = DIRECTION ( 'NONE',  ( -3.491481338843133355E-15, 1.224646799147353207E-16, -1.000000000000000000 ) ) ;
#125 = APPLICATION_PROTOCOL_DEFINITION ( 'international standard', 'config_control_design', 1994, #118 ) ;
#126 = CARTESIAN_POINT ( 'NONE',  ( 0.0000000000000000000, 0.0000000000000000000, 0.0000000000000000000 ) ) ;
#127 = AXIS2_PLACEMENT_3D ( 'NONE', #75, #27, #100 ) ;
#128 = ADVANCED_FACE ( 'NONE', ( #200, #145 ), #161, .T. ) ;
#129 = SHAPE_DEFINITION_REPRESENTATION ( #189, #41 ) ;
#130 = CARTESIAN_POINT ( 'NONE',  ( 3.491481338843133355E-14, 4.799231304517924639E-33, 10.00000000000000000 ) ) ;
#131 = DIRECTION ( 'NONE',  ( 3.491481338843133355E-15, -1.224646799147353207E-16, 1.000000000000000000 ) ) ;
#132 = CARTESIAN_POINT ( 'NONE',  ( 3.558002992641237188E-14, -1.247979454399301074E-15, 10.19052558883257475 ) ) ;
#133 = CC_DESIGN_SECURITY_CLASSIFICATION ( #16, ( #214 ) ) ;
#134 = CARTESIAN_POINT ( 'NONE',  ( 1.047444401652940007E-13, 0.5499999999999964917, 30.00000000000000000 ) ) ;
#135 = VERTEX_POINT ( 'NONE', #81 ) ;
#136 = CIRCLE ( 'NONE', #114, 0.7500000000000000000 ) ;
#137 = PRODUCT_RELATED_PRODUCT_CATEGORY ( 'detail', '', ( #70 ) ) ;
#138 = VERTEX_POINT ( 'NONE', #55 ) ;
#139 = EDGE_LOOP ( 'NONE', ( #35 ) ) ;
#140 = ORIENTED_EDGE ( 'NONE', *, *, #80, .F. ) ;
#141 = PLANE ( 'NONE',  #28 ) ;
#142 = PERSON_AND_ORGANIZATION_ROLE ( 'creator' ) ;
#143 = APPROVAL_PERSON_ORGANIZATION ( #193, #14, #210 ) ;
#144 = APPROVAL_ROLE ( '' ) ;
#145 = FACE_OUTER_BOUND ( 'NONE', #211, .T. ) ;
#146 = DATE_AND_TIME ( #11, #222 ) ;
#147 = DIRECTION ( 'NONE',  ( -4.275831445896958607E-31, -1.000000000000000000, -1.224646799147353207E-16 ) ) ;
#148 = APPROVAL_PERSON_ORGANIZATION ( #157, #82, #40 ) ;
#149 = EDGE_LOOP ( 'NONE', ( #45 ) ) ;
#150 = AXIS2_PLACEMENT_3D ( 'NONE', #132, #206, #47 ) ;
#151 = MANIFOLD_SOLID_BREP ( 'Corps-Déplacer/Copier1[1]', #119 ) ;
#152 = ORIENTED_EDGE ( 'NONE', *, *, #53, .F. ) ;
#153 = CARTESIAN_POINT ( 'NONE',  ( 1.040461438975253740E-13, 0.7499999999999963363, 29.80000000000000071 ) ) ;
#154 = COORDINATED_UNIVERSAL_TIME_OFFSET ( 1, 0, .AHEAD. ) ;
#155 = CALENDAR_DATE ( 2021, 7, 10 ) ;
#156 = CARTESIAN_POINT ( 'NONE',  ( 3.491481338843133355E-14, -1.224646799147353256E-15, 10.00000000000000000 ) ) ;
#157 = PERSON_AND_ORGANIZATION ( #207, #48 ) ;
#158 = DIRECTION ( 'NONE',  ( 3.491481338843133355E-15, -1.224646799147353207E-16, 1.000000000000000000 ) ) ;
#159 = COORDINATED_UNIVERSAL_TIME_OFFSET ( 1, 0, .AHEAD. ) ;
#160 = CARTESIAN_POINT ( 'NONE',  ( 1.342651928691508018E-15, -4.709389016485160418E-17, 0.3845507961776424288 ) ) ;
#161 = CYLINDRICAL_SURFACE ( 'NONE', #175, 0.6399999999999994582 ) ;
#162 = DIRECTION ( 'NONE',  ( 0.0000000000000000000, 1.000000000000000000, 0.0000000000000000000 ) ) ;
#163 = FACE_OUTER_BOUND ( 'NONE', #9, .T. ) ;
#164 = LOCAL_TIME ( 15, 46, 29.00000000000000000, #173 ) ;
#165 = EDGE_LOOP ( 'NONE', ( #49 ) ) ;
#166 = CC_DESIGN_PERSON_AND_ORGANIZATION_ASSIGNMENT ( #195, #71, ( #214 ) ) ;
#167 = AXIS2_PLACEMENT_3D ( 'NONE', #130, #131, #77 ) ;
#168 = ADVANCED_FACE ( 'NONE', ( #86 ), #62, .T. ) ;
#169 = CIRCLE ( 'NONE', #22, 0.6399999999999997913 ) ;
#170 = ADVANCED_FACE ( 'NONE', ( #42 ), #141, .T. ) ;
#171 = CARTESIAN_POINT ( 'NONE',  ( 1.342651928691508215E-15, 0.6399999999999992362, 0.3845507961776424843 ) ) ;
#172 = APPROVAL ( #87, 'UNSPECIFIED' ) ;
#173 = COORDINATED_UNIVERSAL_TIME_OFFSET ( 1, 0, .AHEAD. ) ;
#174 = EDGE_LOOP ( 'NONE', ( #104 ) ) ;
#175 = AXIS2_PLACEMENT_3D ( 'NONE', #10, #90, #18 ) ;
#176 = APPLICATION_PROTOCOL_DEFINITION ( 'international standard', 'config_control_design', 1994, #205 ) ;
#177 = DIRECTION ( 'NONE',  ( 1.000000000000000000, 0.0000000000000000000, 0.0000000000000000000 ) ) ;
#178 = CARTESIAN_POINT ( 'NONE',  ( 3.491481338843133355E-14, -1.224646799147353256E-15, 10.00000000000000000 ) ) ;
#179 = CC_DESIGN_APPROVAL ( #14, ( #99 ) ) ;
#180 = ADVANCED_FACE ( 'NONE', ( #38, #221 ), #74, .T. ) ;
#181 = DIRECTION ( 'NONE',  ( -3.491481338843133355E-15, 1.224646799147353207E-16, -1.000000000000000000 ) ) ;
#182 = ORIENTED_EDGE ( 'NONE', *, *, #76, .F. ) ;
#183 = EDGE_LOOP ( 'NONE', ( #58 ) ) ;
#184 = AXIS2_PLACEMENT_3D ( 'NONE', #64, #20, #177 ) ;
#185 = APPROVAL_DATE_TIME ( #57, #82 ) ;
#186 = LOCAL_TIME ( 15, 46, 29.00000000000000000, #154 ) ;
#187 = CLOSED_SHELL ( 'NONE', ( #168, #128, #170 ) ) ;
#188 = VERTEX_POINT ( 'NONE', #153 ) ;
#189 = PRODUCT_DEFINITION_SHAPE ( 'NONE', 'NONE',  #99 ) ;
#190 = CALENDAR_DATE ( 2021, 7, 10 ) ;
#191 = ADVANCED_FACE ( 'NONE', ( #115 ), #13, .F. ) ;
#192 = DATE_AND_TIME ( #121, #116 ) ;
#193 = PERSON_AND_ORGANIZATION ( #207, #48 ) ;
#194 = CC_DESIGN_PERSON_AND_ORGANIZATION_ASSIGNMENT ( #198, #142, ( #214 ) ) ;
#195 = PERSON_AND_ORGANIZATION ( #207, #48 ) ;
#196 = CARTESIAN_POINT ( 'NONE',  ( 1.342651928691508018E-15, -4.709389016485160418E-17, 0.3845507961776424288 ) ) ;
#197 = DESIGN_CONTEXT ( 'detailed design', #205, 'design' ) ;
#198 = PERSON_AND_ORGANIZATION ( #207, #48 ) ;
#199 = FACE_OUTER_BOUND ( 'NONE', #204, .T. ) ;
#200 = FACE_OUTER_BOUND ( 'NONE', #101, .T. ) ;
#201 = AXIS2_PLACEMENT_3D ( 'NONE', #203, #212, #51 ) ;
#202 = FACE_BOUND ( 'NONE', #165, .T. ) ;
#203 = CARTESIAN_POINT ( 'NONE',  ( 1.047444401652940007E-13, -3.673940397442059178E-15, 30.00000000000000000 ) ) ;
#204 = EDGE_LOOP ( 'NONE', ( #44 ) ) ;
#205 = APPLICATION_CONTEXT ( 'configuration controlled 3d designs of mechanical parts and assemblies' ) ;
#206 = DIRECTION ( 'NONE',  ( -3.491481338843133355E-15, 1.224646799147353207E-16, -1.000000000000000000 ) ) ;
#207 = PERSON ( 'UNSPECIFIED', 'UNSPECIFIED', 'UNSPECIFIED', ('UNSPECIFIED'), ('UNSPECIFIED'), ('UNSPECIFIED') ) ;
#208 = EDGE_LOOP ( 'NONE', ( #83 ) ) ;
#209 = ADVANCED_FACE ( 'NONE', ( #79 ), #60, .F. ) ;
#210 = APPROVAL_ROLE ( '' ) ;
#211 = EDGE_LOOP ( 'NONE', ( #223 ) ) ;
#212 = DIRECTION ( 'NONE',  ( -3.491481338843133355E-15, 1.224646799147353207E-16, -1.000000000000000000 ) ) ;
#213 = PERSON_AND_ORGANIZATION_ROLE ( 'classification_officer' ) ;
#214 = PRODUCT_DEFINITION_FORMATION_WITH_SPECIFIED_SOURCE ( 'ANY', '', #70, .NOT_KNOWN. ) ;
#215 = PERSON_AND_ORGANIZATION_ROLE ( 'design_owner' ) ;
#216 = EDGE_CURVE ( 'NONE', #138, #138, #102, .T. ) ;
#217 =( NAMED_UNIT ( * ) PLANE_ANGLE_UNIT ( ) SI_UNIT ( $, .RADIAN. ) );
#218 = DIRECTION ( 'NONE',  ( -3.491481338843133355E-15, 1.224646799147353207E-16, -1.000000000000000000 ) ) ;
#219 = DIRECTION ( 'NONE',  ( 3.491481338843133355E-15, -1.224646799147353207E-16, 1.000000000000000000 ) ) ;
#220 = UNCERTAINTY_MEASURE_WITH_UNIT (LENGTH_MEASURE( 1.000000000000000082E-05 ), #8, 'distance_accuracy_value', 'NONE');
#221 = FACE_BOUND ( 'NONE', #149, .T. ) ;
#222 = LOCAL_TIME ( 15, 46, 29.00000000000000000, #159 ) ;
#223 = ORIENTED_EDGE ( 'NONE', *, *, #113, .T. ) ;
ENDSEC;
END-ISO-10303-21;
