ISO-10303-21;
HEADER;
FILE_DESCRIPTION (( 'STEP AP203' ),
    '1' );
FILE_NAME ('256.step',
    '2021-09-03T07:21:35',
    ( '' ),
    ( '' ),
    'SwSTEP 2.0',
    'SolidWorks 2019',
    '' );
FILE_SCHEMA (( 'CONFIG_CONTROL_DESIGN' ));
ENDSEC;

DATA;
#1 =( NAMED_UNIT ( * ) SI_UNIT ( $, .STERADIAN. ) SOLID_ANGLE_UNIT ( ) );
#2 = PRODUCT_DEFINITION ( 'UNKNOWN', '', #305, #303 ) ;
#3 = COORDINATED_UNIVERSAL_TIME_OFFSET ( 1, 0, .AHEAD. ) ;
#4 = ORIENTED_EDGE ( 'NONE', *, *, #110, .F. ) ;
#5 = AXIS2_PLACEMENT_3D ( 'NONE', #317, #140, #296 ) ;
#6 = ORIENTED_EDGE ( 'NONE', *, *, #62, .T. ) ;
#7 = ORIENTED_EDGE ( 'NONE', *, *, #231, .T. ) ;
#8 = DIRECTION ( 'NONE',  ( -3.491481338843133355E-15, 1.224646799147353207E-16, -1.000000000000000000 ) ) ;
#9 = APPLICATION_CONTEXT ( 'configuration controlled 3d designs of mechanical parts and assemblies' ) ;
#10 = VERTEX_POINT ( 'NONE', #327 ) ;
#11 = ORIENTED_EDGE ( 'NONE', *, *, #27, .T. ) ;
#12 = AXIS2_PLACEMENT_3D ( 'NONE', #230, #325, #184 ) ;
#13 = LOCAL_TIME ( 9, 21, 35.00000000000000000, #20 ) ;
#14 = ORIENTED_EDGE ( 'NONE', *, *, #178, .F. ) ;
#15 = FACE_OUTER_BOUND ( 'NONE', #264, .T. ) ;
#16 = DIRECTION ( 'NONE',  ( 1.798245827342160317E-15, -0.8571673007021098911, 0.5150380749100582634 ) ) ;
#17 = FACE_OUTER_BOUND ( 'NONE', #163, .T. ) ;
#18 = EDGE_CURVE ( 'NONE', #29, #57, #263, .T. ) ;
#19 = LINE ( 'NONE', #131, #86 ) ;
#20 = COORDINATED_UNIVERSAL_TIME_OFFSET ( 1, 0, .AHEAD. ) ;
#21 = PLANE ( 'NONE',  #92 ) ;
#22 = DATE_AND_TIME ( #106, #97 ) ;
#23 = EDGE_CURVE ( 'NONE', #251, #215, #143, .T. ) ;
#24 = DIRECTION ( 'NONE',  ( -4.275831445896958607E-31, -1.000000000000000000, -1.224646799147353207E-16 ) ) ;
#25 = LINE ( 'NONE', #328, #51 ) ;
#26 = PLANE ( 'NONE',  #167 ) ;
#27 = EDGE_CURVE ( 'NONE', #215, #57, #122, .T. ) ;
#28 = DATE_TIME_ROLE ( 'creation_date' ) ;
#29 = VERTEX_POINT ( 'NONE', #66 ) ;
#30 = APPROVAL ( #256, 'UNSPECIFIED' ) ;
#31 = CARTESIAN_POINT ( 'NONE',  ( 0.0000000000000000000, 0.0000000000000000000, 0.0000000000000000000 ) ) ;
#32 = DIRECTION ( 'NONE',  ( 1.000000000000000000, 0.0000000000000000000, 0.0000000000000000000 ) ) ;
#33 = ORIENTED_EDGE ( 'NONE', *, *, #38, .F. ) ;
#34 = CARTESIAN_POINT ( 'NONE',  ( 6.123233995736727825E-17, -0.4999999999999986122, -6.123233995736769734E-17 ) ) ;
#35 = LINE ( 'NONE', #83, #172 ) ;
#36 = VECTOR ( 'NONE', #54, 1000.000000000000000 ) ;
#37 = DIRECTION ( 'NONE',  ( 0.0000000000000000000, 1.000000000000000000, 0.0000000000000000000 ) ) ;
#38 = EDGE_CURVE ( 'NONE', #144, #57, #148, .T. ) ;
#39 = ORIENTED_EDGE ( 'NONE', *, *, #231, .F. ) ;
#40 = DIRECTION ( 'NONE',  ( 0.0000000000000000000, 1.000000000000000000, 0.0000000000000000000 ) ) ;
#41 = EDGE_LOOP ( 'NONE', ( #39, #4 ) ) ;
#42 = AXIS2_PLACEMENT_3D ( 'NONE', #312, #8, #84 ) ;
#43 = APPROVAL ( #284, 'UNSPECIFIED' ) ;
#44 = CARTESIAN_POINT ( 'NONE',  ( 2.444036937190193349E-14, -8.572527594031473190E-16, 7.000000000000000000 ) ) ;
#45 =( LENGTH_UNIT ( ) NAMED_UNIT ( * ) SI_UNIT ( .MILLI., .METRE. ) );
#46 = DIRECTION ( 'NONE',  ( -3.491481338843133355E-15, 1.224646799147353207E-16, -1.000000000000000000 ) ) ;
#47 = DIRECTION ( 'NONE',  ( -3.851859888774499732E-31, -1.000000000000000000, -1.084202172485512323E-16 ) ) ;
#48 = LINE ( 'NONE', #34, #36 ) ;
#49 = EDGE_CURVE ( 'NONE', #130, #313, #281, .T. ) ;
#50 = CALENDAR_DATE ( 2021, 3, 9 ) ;
#51 = VECTOR ( 'NONE', #278, 1000.000000000000000 ) ;
#52 = ORGANIZATION ( 'UNSPECIFIED', 'UNSPECIFIED', '' ) ;
#53 = EDGE_CURVE ( 'NONE', #215, #251, #200, .T. ) ;
#54 = DIRECTION ( 'NONE',  ( -3.491481338843133355E-15, 1.224646799147353207E-16, -1.000000000000000000 ) ) ;
#55 = CALENDAR_DATE ( 2021, 3, 9 ) ;
#56 = DIRECTION ( 'NONE',  ( -2.382254525458708792E-15, -0.7071067811865495711, -0.7071067811865455743 ) ) ;
#57 = VERTEX_POINT ( 'NONE', #334 ) ;
#58 = CLOSED_SHELL ( 'NONE', ( #336, #99, #266, #237, #289 ) ) ;
#59 = ADVANCED_FACE ( 'NONE', ( #233 ), #307, .F. ) ;
#60 = APPROVAL_DATE_TIME ( #116, #30 ) ;
#61 = PERSON_AND_ORGANIZATION ( #253, #52 ) ;
#62 = EDGE_CURVE ( 'NONE', #146, #10, #244, .T. ) ;
#63 =( GEOMETRIC_REPRESENTATION_CONTEXT ( 3 ) GLOBAL_UNCERTAINTY_ASSIGNED_CONTEXT ( ( #285 ) ) GLOBAL_UNIT_ASSIGNED_CONTEXT ( ( #45, #236, #1 ) ) REPRESENTATION_CONTEXT ( 'NONE', 'WORKASPACE' ) );
#64 = APPROVAL_ROLE ( '' ) ;
#65 = LINE ( 'NONE', #105, #271 ) ;
#66 = CARTESIAN_POINT ( 'NONE',  ( 1.048946819290233638E-15, -0.4999999999999963363, 0.3004303095137811908 ) ) ;
#67 = CARTESIAN_POINT ( 'NONE',  ( 1.047444401652940007E-13, -3.673940397442059178E-15, 30.00000000000000000 ) ) ;
#68 = CARTESIAN_POINT ( 'NONE',  ( 2.137915722948465290E-31, 0.4999999999999967804, 6.123233995736726593E-17 ) ) ;
#69 = CARTESIAN_POINT ( 'NONE',  ( 1.047444401652940007E-13, -3.673940397442059178E-15, 30.00000000000000000 ) ) ;
#70 = ORIENTED_EDGE ( 'NONE', *, *, #49, .F. ) ;
#71 = DIRECTION ( 'NONE',  ( 4.275831445896957731E-31, 1.000000000000000000, 1.224646799147353207E-16 ) ) ;
#72 = EDGE_CURVE ( 'NONE', #280, #313, #65, .T. ) ;
#73 = AXIS2_PLACEMENT_3D ( 'NONE', #319, #94, #272 ) ;
#74 = APPROVAL_PERSON_ORGANIZATION ( #187, #30, #314 ) ;
#75 = DIRECTION ( 'NONE',  ( 4.275831445896959482E-31, 1.000000000000000000, 1.224646799147353207E-16 ) ) ;
#76 = CARTESIAN_POINT ( 'NONE',  ( 1.047444401652940007E-13, 2.249639673992731331E-33, 30.00000000000000000 ) ) ;
#77 = COORDINATED_UNIVERSAL_TIME_OFFSET ( 1, 0, .AHEAD. ) ;
#78 = ORIENTED_EDGE ( 'NONE', *, *, #23, .T. ) ;
#79 = CIRCLE ( 'NONE', #309, 0.5000000000000000000 ) ;
#80 = CC_DESIGN_APPROVAL ( #320, ( #250 ) ) ;
#81 = ORIENTED_EDGE ( 'NONE', *, *, #62, .F. ) ;
#82 = CC_DESIGN_PERSON_AND_ORGANIZATION_ASSIGNMENT ( #61, #218, ( #2 ) ) ;
#83 = CARTESIAN_POINT ( 'NONE',  ( 1.047444401652940007E-13, 0.2999999999999963252, 30.00000000000000000 ) ) ;
#84 = DIRECTION ( 'NONE',  ( 0.0000000000000000000, 1.000000000000000000, 0.0000000000000000000 ) ) ;
#85 = ORIENTED_EDGE ( 'NONE', *, *, #72, .F. ) ;
#86 = VECTOR ( 'NONE', #16, 1000.000000000000000 ) ;
#87 = MECHANICAL_CONTEXT ( 'NONE', #9, 'mechanical' ) ;
#88 = ORIENTED_EDGE ( 'NONE', *, *, #158, .F. ) ;
#89 = DIRECTION ( 'NONE',  ( 0.0000000000000000000, 1.000000000000000000, 0.0000000000000000000 ) ) ;
#90 = CALENDAR_DATE ( 2021, 3, 9 ) ;
#91 = ORIENTED_EDGE ( 'NONE', *, *, #127, .T. ) ;
#92 = AXIS2_PLACEMENT_3D ( 'NONE', #135, #262, #24 ) ;
#93 = ADVANCED_FACE ( 'NONE', ( #161 ), #26, .F. ) ;
#94 = DIRECTION ( 'NONE',  ( -3.491481338843133355E-15, 1.224646799147353207E-16, -1.000000000000000000 ) ) ;
#95 = DIRECTION ( 'NONE',  ( 0.0000000000000000000, 1.000000000000000000, 0.0000000000000000000 ) ) ;
#96 = VECTOR ( 'NONE', #209, 1000.000000000000000 ) ;
#97 = LOCAL_TIME ( 9, 21, 35.00000000000000000, #134 ) ;
#98 = EDGE_LOOP ( 'NONE', ( #283, #324 ) ) ;
#99 = ADVANCED_FACE ( 'NONE', ( #121 ), #337, .T. ) ;
#100 = DIRECTION ( 'NONE',  ( 0.0000000000000000000, 1.000000000000000000, 0.0000000000000000000 ) ) ;
#101 = DIRECTION ( 'NONE',  ( -3.491481338843133355E-15, 1.224646799147353207E-16, -1.000000000000000000 ) ) ;
#102 = LOCAL_TIME ( 9, 21, 35.00000000000000000, #195 ) ;
#103 = ORIENTED_EDGE ( 'NONE', *, *, #191, .T. ) ;
#104 = EDGE_CURVE ( 'NONE', #57, #29, #197, .T. ) ;
#105 = CARTESIAN_POINT ( 'NONE',  ( 1.047811795692684136E-13, -0.3000000000000037081, 30.00000000000000000 ) ) ;
#106 = CALENDAR_DATE ( 2021, 3, 9 ) ;
#107 = DATE_AND_TIME ( #114, #193 ) ;
#108 = CIRCLE ( 'NONE', #115, 0.3000000000000000444 ) ;
#109 = CONICAL_SURFACE ( 'NONE', #5, 0.3000000000000000444, 0.7853981633974512766 ) ;
#110 = EDGE_CURVE ( 'NONE', #280, #123, #207, .T. ) ;
#111 = DATE_TIME_ROLE ( 'classification_date' ) ;
#112 = CYLINDRICAL_SURFACE ( 'NONE', #297, 0.4999999999999967804 ) ;
#113 = APPROVAL_STATUS ( 'not_yet_approved' ) ;
#114 = CALENDAR_DATE ( 2021, 3, 9 ) ;
#115 = AXIS2_PLACEMENT_3D ( 'NONE', #159, #188, #100 ) ;
#116 = DATE_AND_TIME ( #90, #268 ) ;
#117 = EDGE_LOOP ( 'NONE', ( #141, #221, #326 ) ) ;
#118 = CC_DESIGN_DATE_AND_TIME_ASSIGNMENT ( #265, #28, ( #2 ) ) ;
#119 = PERSON_AND_ORGANIZATION ( #253, #52 ) ;
#120 = ORIENTED_EDGE ( 'NONE', *, *, #49, .T. ) ;
#121 = FACE_OUTER_BOUND ( 'NONE', #117, .T. ) ;
#122 = LINE ( 'NONE', #68, #124 ) ;
#123 = VERTEX_POINT ( 'NONE', #255 ) ;
#124 = VECTOR ( 'NONE', #174, 1000.000000000000000 ) ;
#125 = PERSON_AND_ORGANIZATION_ROLE ( 'classification_officer' ) ;
#126 = CC_DESIGN_APPROVAL ( #30, ( #2 ) ) ;
#127 = EDGE_CURVE ( 'NONE', #144, #29, #19, .T. ) ;
#128 = CARTESIAN_POINT ( 'NONE',  ( 1.110179159247601212E-15, 0.4999999999999963363, 0.3004303095137813018 ) ) ;
#129 = DIRECTION ( 'NONE',  ( -3.491481338843133355E-15, 1.224646799147353207E-16, -1.000000000000000000 ) ) ;
#130 = VERTEX_POINT ( 'NONE', #145 ) ;
#131 = CARTESIAN_POINT ( 'NONE',  ( 1.048946819290233638E-15, -0.4999999999999963363, 0.3004303095137811908 ) ) ;
#132 = DIRECTION ( 'NONE',  ( 0.0000000000000000000, 1.000000000000000000, 0.0000000000000000000 ) ) ;
#133 = ORIENTED_EDGE ( 'NONE', *, *, #27, .F. ) ;
#134 = COORDINATED_UNIVERSAL_TIME_OFFSET ( 1, 0, .AHEAD. ) ;
#135 = CARTESIAN_POINT ( 'NONE',  ( 2.444036937190193349E-14, 3.749399456654610492E-33, 7.000000000000000000 ) ) ;
#136 = CARTESIAN_POINT ( 'NONE',  ( 0.0000000000000000000, 0.0000000000000000000, 0.0000000000000000000 ) ) ;
#137 = CARTESIAN_POINT ( 'NONE',  ( 2.444036937190193349E-14, -8.572527594031473190E-16, 7.000000000000000000 ) ) ;
#138 = FACE_OUTER_BOUND ( 'NONE', #315, .T. ) ;
#139 = ORIENTED_EDGE ( 'NONE', *, *, #110, .T. ) ;
#140 = DIRECTION ( 'NONE',  ( -3.491481338843133355E-15, 1.224646799147353207E-16, -1.000000000000000000 ) ) ;
#141 = ORIENTED_EDGE ( 'NONE', *, *, #127, .F. ) ;
#142 = CARTESIAN_POINT ( 'NONE',  ( 1.040461438975253740E-13, -3.649447461459112464E-15, 29.80000000000000071 ) ) ;
#143 = CIRCLE ( 'NONE', #267, 0.4999999999999971689 ) ;
#144 = VERTEX_POINT ( 'NONE', #226 ) ;
#145 = CARTESIAN_POINT ( 'NONE',  ( 1.040461438975253740E-13, 0.4999999999999963363, 29.80000000000000071 ) ) ;
#146 = VERTEX_POINT ( 'NONE', #318 ) ;
#147 = DIRECTION ( 'NONE',  ( -3.491481338843133355E-15, 1.224646799147353207E-16, -1.000000000000000000 ) ) ;
#148 = LINE ( 'NONE', #128, #232 ) ;
#149 = AXIS2_PLACEMENT_3D ( 'NONE', #76, #192, #286 ) ;
#150 = CARTESIAN_POINT ( 'NONE',  ( 2.137915722948473611E-31, 0.4999999999999986122, 6.123233995736748780E-17 ) ) ;
#151 = CARTESIAN_POINT ( 'NONE',  ( 2.444036937190193349E-14, -8.572527594031473190E-16, 7.000000000000000000 ) ) ;
#152 = DIRECTION ( 'NONE',  ( -3.491481338843133355E-15, 1.224646799147353207E-16, -1.000000000000000000 ) ) ;
#153 = DIRECTION ( 'NONE',  ( 3.491481338843133355E-15, -1.224646799147353207E-16, 1.000000000000000000 ) ) ;
#154 = EDGE_CURVE ( 'NONE', #251, #29, #25, .T. ) ;
#155 = AXIS2_PLACEMENT_3D ( 'NONE', #335, #101, #287 ) ;
#156 = ORIENTED_EDGE ( 'NONE', *, *, #53, .T. ) ;
#157 = SHAPE_DEFINITION_REPRESENTATION ( #247, #217 ) ;
#158 = EDGE_CURVE ( 'NONE', #130, #146, #300, .T. ) ;
#159 = CARTESIAN_POINT ( 'NONE',  ( 1.047444401652940007E-13, -3.673940397442059178E-15, 30.00000000000000000 ) ) ;
#160 = CYLINDRICAL_SURFACE ( 'NONE', #183, 0.4999999999999986122 ) ;
#161 = FACE_OUTER_BOUND ( 'NONE', #224, .T. ) ;
#162 = CC_DESIGN_PERSON_AND_ORGANIZATION_ASSIGNMENT ( #119, #125, ( #250 ) ) ;
#163 = EDGE_LOOP ( 'NONE', ( #156, #204, #177, #133 ) ) ;
#164 = MANIFOLD_SOLID_BREP ( 'Corps-Déplacer/Copier1[1]', #190 ) ;
#165 = CARTESIAN_POINT ( 'NONE',  ( 1.280589043555343191E-14, -0.4999999999999980571, 7.000000000000000000 ) ) ;
#166 = ORIENTED_EDGE ( 'NONE', *, *, #72, .T. ) ;
#167 = AXIS2_PLACEMENT_3D ( 'NONE', #242, #210, #212 ) ;
#168 = APPROVAL_PERSON_ORGANIZATION ( #220, #43, #333 ) ;
#169 = CC_DESIGN_DATE_AND_TIME_ASSIGNMENT ( #107, #111, ( #250 ) ) ;
#170 = ORIENTED_EDGE ( 'NONE', *, *, #18, .T. ) ;
#171 = MANIFOLD_SOLID_BREP ( 'Corps-Déplacer/Copier1[2]', #58 ) ;
#172 = VECTOR ( 'NONE', #293, 1000.000000000000114 ) ;
#173 = PERSON_AND_ORGANIZATION_ROLE ( 'design_owner' ) ;
#174 = DIRECTION ( 'NONE',  ( -3.491481338843133355E-15, 1.224646799147353207E-16, -1.000000000000000000 ) ) ;
#175 = AXIS2_PLACEMENT_3D ( 'NONE', #322, #152, #181 ) ;
#176 = PERSON_AND_ORGANIZATION ( #253, #52 ) ;
#177 = ORIENTED_EDGE ( 'NONE', *, *, #104, .F. ) ;
#178 = EDGE_CURVE ( 'NONE', #313, #10, #48, .T. ) ;
#179 = ORIENTED_EDGE ( 'NONE', *, *, #213, .T. ) ;
#180 = DIRECTION ( 'NONE',  ( 3.851859888774499732E-31, 1.000000000000000000, 1.084202172485512323E-16 ) ) ;
#181 = DIRECTION ( 'NONE',  ( 4.275831445896957731E-31, 1.000000000000000000, 1.224646799147353207E-16 ) ) ;
#182 = DIRECTION ( 'NONE',  ( -3.491481338843133355E-15, 1.224646799147353207E-16, -1.000000000000000000 ) ) ;
#183 = AXIS2_PLACEMENT_3D ( 'NONE', #136, #234, #75 ) ;
#184 = DIRECTION ( 'NONE',  ( -3.851859888774499732E-31, -1.000000000000000000, -1.084202172485512323E-16 ) ) ;
#185 = DIRECTION ( 'NONE',  ( 1.903218546456022717E-15, 0.8571673007021097801, 0.5150380749100585964 ) ) ;
#186 = CC_DESIGN_PERSON_AND_ORGANIZATION_ASSIGNMENT ( #205, #173, ( #308 ) ) ;
#187 = PERSON_AND_ORGANIZATION ( #253, #52 ) ;
#188 = DIRECTION ( 'NONE',  ( -3.491481338843133355E-15, 1.224646799147353207E-16, -1.000000000000000000 ) ) ;
#189 = APPROVAL_DATE_TIME ( #276, #43 ) ;
#190 = CLOSED_SHELL ( 'NONE', ( #299, #288, #93, #274, #223, #59 ) ) ;
#191 = EDGE_CURVE ( 'NONE', #313, #130, #79, .T. ) ;
#192 = DIRECTION ( 'NONE',  ( -3.491481338843133355E-15, 1.224646799147353207E-16, -1.000000000000000000 ) ) ;
#193 = LOCAL_TIME ( 9, 21, 35.00000000000000000, #77 ) ;
#194 = APPLICATION_CONTEXT ( 'configuration controlled 3d designs of mechanical parts and assemblies' ) ;
#195 = COORDINATED_UNIVERSAL_TIME_OFFSET ( 1, 0, .AHEAD. ) ;
#196 = ORIENTED_EDGE ( 'NONE', *, *, #213, .F. ) ;
#197 = CIRCLE ( 'NONE', #249, 0.4999999999999963363 ) ;
#198 = PRODUCT_RELATED_PRODUCT_CATEGORY ( 'detail', '', ( #308 ) ) ;
#199 = PERSON_AND_ORGANIZATION_ROLE ( 'creator' ) ;
#200 = CIRCLE ( 'NONE', #240, 0.4999999999999971689 ) ;
#201 = CIRCLE ( 'NONE', #42, 0.4999999999999971689 ) ;
#202 = PERSON_AND_ORGANIZATION_ROLE ( 'design_supplier' ) ;
#203 = CYLINDRICAL_SURFACE ( 'NONE', #175, 0.4999999999999967804 ) ;
#204 = ORIENTED_EDGE ( 'NONE', *, *, #154, .T. ) ;
#205 = PERSON_AND_ORGANIZATION ( #253, #52 ) ;
#206 = CARTESIAN_POINT ( 'NONE',  ( 1.040461438975253740E-13, -3.649447461459112464E-15, 29.80000000000000071 ) ) ;
#207 = CIRCLE ( 'NONE', #214, 0.3000000000000000444 ) ;
#208 = CC_DESIGN_APPROVAL ( #43, ( #305 ) ) ;
#209 = DIRECTION ( 'NONE',  ( -3.491481338843133355E-15, 1.224646799147353207E-16, -1.000000000000000000 ) ) ;
#210 = DIRECTION ( 'NONE',  ( 3.491481338843133355E-15, -1.224646799147353207E-16, 1.000000000000000000 ) ) ;
#211 = EDGE_LOOP ( 'NONE', ( #120, #222, #81, #88 ) ) ;
#212 = DIRECTION ( 'NONE',  ( -4.275831445896958607E-31, -1.000000000000000000, -1.224646799147353207E-16 ) ) ;
#213 = EDGE_CURVE ( 'NONE', #123, #130, #35, .T. ) ;
#214 = AXIS2_PLACEMENT_3D ( 'NONE', #67, #147, #254 ) ;
#215 = VERTEX_POINT ( 'NONE', #252 ) ;
#216 = EDGE_LOOP ( 'NONE', ( #33, #91, #170 ) ) ;
#217 = ADVANCED_BREP_SHAPE_REPRESENTATION ( '256', ( #164, #171, #227 ), #63 ) ;
#218 = PERSON_AND_ORGANIZATION_ROLE ( 'creator' ) ;
#219 = AXIS2_PLACEMENT_3D ( 'NONE', #295, #153, #47 ) ;
#220 = PERSON_AND_ORGANIZATION ( #253, #52 ) ;
#221 = ORIENTED_EDGE ( 'NONE', *, *, #38, .T. ) ;
#222 = ORIENTED_EDGE ( 'NONE', *, *, #178, .T. ) ;
#223 = ADVANCED_FACE ( 'NONE', ( #15 ), #109, .T. ) ;
#224 = EDGE_LOOP ( 'NONE', ( #6, #248 ) ) ;
#225 = ORIENTED_EDGE ( 'NONE', *, *, #191, .F. ) ;
#226 = CARTESIAN_POINT ( 'NONE',  ( 0.0000000000000000000, 0.0000000000000000000, 0.0000000000000000000 ) ) ;
#227 = AXIS2_PLACEMENT_3D ( 'NONE', #243, #311, #32 ) ;
#228 = SECURITY_CLASSIFICATION_LEVEL ( 'unclassified' ) ;
#229 = CARTESIAN_POINT ( 'NONE',  ( 6.430448897467080674E-14, -0.5000000000000036637, 29.80000000000000071 ) ) ;
#230 = CARTESIAN_POINT ( 'NONE',  ( 1.048946819290233835E-15, -3.679210169129008446E-17, 0.3004303095137812463 ) ) ;
#231 = EDGE_CURVE ( 'NONE', #123, #280, #108, .T. ) ;
#232 = VECTOR ( 'NONE', #185, 999.9999999999998863 ) ;
#233 = FACE_OUTER_BOUND ( 'NONE', #41, .T. ) ;
#234 = DIRECTION ( 'NONE',  ( -3.491481338843133355E-15, 1.224646799147353207E-16, -1.000000000000000000 ) ) ;
#235 = APPLICATION_PROTOCOL_DEFINITION ( 'international standard', 'config_control_design', 1994, #194 ) ;
#236 =( NAMED_UNIT ( * ) PLANE_ANGLE_UNIT ( ) SI_UNIT ( $, .RADIAN. ) );
#237 = ADVANCED_FACE ( 'NONE', ( #261 ), #112, .T. ) ;
#238 = CARTESIAN_POINT ( 'NONE',  ( 1.044442779033755776E-13, -0.3000000000000037081, 30.00000000000000000 ) ) ;
#239 = APPROVAL_DATE_TIME ( #22, #320 ) ;
#240 = AXIS2_PLACEMENT_3D ( 'NONE', #44, #46, #132 ) ;
#241 = DIRECTION ( 'NONE',  ( -3.491481338843133355E-15, 1.224646799147353207E-16, -1.000000000000000000 ) ) ;
#242 = CARTESIAN_POINT ( 'NONE',  ( 2.444036937190193349E-14, 3.749399456654610492E-33, 7.000000000000000000 ) ) ;
#243 = CARTESIAN_POINT ( 'NONE',  ( 0.0000000000000000000, 0.0000000000000000000, 0.0000000000000000000 ) ) ;
#244 = CIRCLE ( 'NONE', #329, 0.4999999999999971689 ) ;
#245 = EDGE_CURVE ( 'NONE', #10, #146, #201, .T. ) ;
#246 = ORIENTED_EDGE ( 'NONE', *, *, #245, .F. ) ;
#247 = PRODUCT_DEFINITION_SHAPE ( 'NONE', 'NONE',  #2 ) ;
#248 = ORIENTED_EDGE ( 'NONE', *, *, #245, .T. ) ;
#249 = AXIS2_PLACEMENT_3D ( 'NONE', #273, #323, #180 ) ;
#250 = SECURITY_CLASSIFICATION ( '', '', #228 ) ;
#251 = VERTEX_POINT ( 'NONE', #165 ) ;
#252 = CARTESIAN_POINT ( 'NONE',  ( 2.444036937190193349E-14, 0.4999999999999963363, 7.000000000000000000 ) ) ;
#253 = PERSON ( 'UNSPECIFIED', 'UNSPECIFIED', 'UNSPECIFIED', ('UNSPECIFIED'), ('UNSPECIFIED'), ('UNSPECIFIED') ) ;
#254 = DIRECTION ( 'NONE',  ( 0.0000000000000000000, 1.000000000000000000, 0.0000000000000000000 ) ) ;
#255 = CARTESIAN_POINT ( 'NONE',  ( 1.047444401652940007E-13, 0.2999999999999963252, 30.00000000000000000 ) ) ;
#256 = APPROVAL_STATUS ( 'not_yet_approved' ) ;
#257 = CC_DESIGN_SECURITY_CLASSIFICATION ( #250, ( #305 ) ) ;
#258 = FACE_OUTER_BOUND ( 'NONE', #98, .T. ) ;
#259 = FACE_OUTER_BOUND ( 'NONE', #290, .T. ) ;
#260 = CYLINDRICAL_SURFACE ( 'NONE', #155, 0.4999999999999986122 ) ;
#261 = FACE_OUTER_BOUND ( 'NONE', #301, .T. ) ;
#262 = DIRECTION ( 'NONE',  ( 3.491481338843133355E-15, -1.224646799147353207E-16, 1.000000000000000000 ) ) ;
#263 = CIRCLE ( 'NONE', #73, 0.4999999999999963363 ) ;
#264 = EDGE_LOOP ( 'NONE', ( #85, #139, #179, #225 ) ) ;
#265 = DATE_AND_TIME ( #55, #102 ) ;
#266 = ADVANCED_FACE ( 'NONE', ( #269 ), #310, .T. ) ;
#267 = AXIS2_PLACEMENT_3D ( 'NONE', #151, #298, #40 ) ;
#268 = LOCAL_TIME ( 9, 21, 35.00000000000000000, #3 ) ;
#269 = FACE_OUTER_BOUND ( 'NONE', #216, .T. ) ;
#270 = ORIENTED_EDGE ( 'NONE', *, *, #154, .F. ) ;
#271 = VECTOR ( 'NONE', #56, 1000.000000000000114 ) ;
#272 = DIRECTION ( 'NONE',  ( 3.851859888774499732E-31, 1.000000000000000000, 1.084202172485512323E-16 ) ) ;
#273 = CARTESIAN_POINT ( 'NONE',  ( 1.048946819290233835E-15, -3.679210169129008446E-17, 0.3004303095137812463 ) ) ;
#274 = ADVANCED_FACE ( 'NONE', ( #259 ), #160, .T. ) ;
#275 = DIRECTION ( 'NONE',  ( -3.491481338843133355E-15, 1.224646799147353207E-16, -1.000000000000000000 ) ) ;
#276 = DATE_AND_TIME ( #50, #13 ) ;
#277 = DIRECTION ( 'NONE',  ( 0.0000000000000000000, 1.000000000000000000, 0.0000000000000000000 ) ) ;
#278 = DIRECTION ( 'NONE',  ( -3.491481338843133355E-15, 1.224646799147353207E-16, -1.000000000000000000 ) ) ;
#279 = PERSON_AND_ORGANIZATION ( #253, #52 ) ;
#280 = VERTEX_POINT ( 'NONE', #238 ) ;
#281 = CIRCLE ( 'NONE', #304, 0.5000000000000000000 ) ;
#282 = CONICAL_SURFACE ( 'NONE', #321, 0.3000000000000000444, 0.7853981633974512766 ) ;
#283 = ORIENTED_EDGE ( 'NONE', *, *, #53, .F. ) ;
#284 = APPROVAL_STATUS ( 'not_yet_approved' ) ;
#285 = UNCERTAINTY_MEASURE_WITH_UNIT (LENGTH_MEASURE( 1.000000000000000082E-05 ), #45, 'distance_accuracy_value', 'NONE');
#286 = DIRECTION ( 'NONE',  ( 4.275831445896958607E-31, 1.000000000000000000, 1.224646799147353207E-16 ) ) ;
#287 = DIRECTION ( 'NONE',  ( 4.275831445896959482E-31, 1.000000000000000000, 1.224646799147353207E-16 ) ) ;
#288 = ADVANCED_FACE ( 'NONE', ( #331 ), #260, .T. ) ;
#289 = ADVANCED_FACE ( 'NONE', ( #258 ), #21, .T. ) ;
#290 = EDGE_LOOP ( 'NONE', ( #14, #103, #330, #246 ) ) ;
#291 = PERSON_AND_ORGANIZATION ( #253, #52 ) ;
#292 = APPLICATION_PROTOCOL_DEFINITION ( 'international standard', 'config_control_design', 1994, #9 ) ;
#293 = DIRECTION ( 'NONE',  ( -2.468850131082257455E-15, 0.7071067811865497932, -0.7071067811865453523 ) ) ;
#294 = ORIENTED_EDGE ( 'NONE', *, *, #18, .F. ) ;
#295 = CARTESIAN_POINT ( 'NONE',  ( 1.048946819290233835E-15, -3.679210169129008446E-17, 0.3004303095137812463 ) ) ;
#296 = DIRECTION ( 'NONE',  ( 0.0000000000000000000, 1.000000000000000000, 0.0000000000000000000 ) ) ;
#297 = AXIS2_PLACEMENT_3D ( 'NONE', #31, #275, #71 ) ;
#298 = DIRECTION ( 'NONE',  ( -3.491481338843133355E-15, 1.224646799147353207E-16, -1.000000000000000000 ) ) ;
#299 = ADVANCED_FACE ( 'NONE', ( #138 ), #282, .T. ) ;
#300 = LINE ( 'NONE', #150, #96 ) ;
#301 = EDGE_LOOP ( 'NONE', ( #270, #78, #11, #294 ) ) ;
#302 = APPROVAL_PERSON_ORGANIZATION ( #291, #320, #64 ) ;
#303 = DESIGN_CONTEXT ( 'detailed design', #194, 'design' ) ;
#304 = AXIS2_PLACEMENT_3D ( 'NONE', #206, #182, #277 ) ;
#305 = PRODUCT_DEFINITION_FORMATION_WITH_SPECIFIED_SOURCE ( 'ANY', '', #308, .NOT_KNOWN. ) ;
#306 = CC_DESIGN_PERSON_AND_ORGANIZATION_ASSIGNMENT ( #279, #199, ( #305 ) ) ;
#307 = PLANE ( 'NONE',  #149 ) ;
#308 = PRODUCT ( '256', '256', '', ( #87 ) ) ;
#309 = AXIS2_PLACEMENT_3D ( 'NONE', #142, #316, #89 ) ;
#310 = CONICAL_SURFACE ( 'NONE', #219, 0.4999999999999963363, 1.029744258676649649 ) ;
#311 = DIRECTION ( 'NONE',  ( 0.0000000000000000000, 0.0000000000000000000, 1.000000000000000000 ) ) ;
#312 = CARTESIAN_POINT ( 'NONE',  ( 2.444036937190193349E-14, -8.572527594031473190E-16, 7.000000000000000000 ) ) ;
#313 = VERTEX_POINT ( 'NONE', #229 ) ;
#314 = APPROVAL_ROLE ( '' ) ;
#315 = EDGE_LOOP ( 'NONE', ( #7, #166, #70, #196 ) ) ;
#316 = DIRECTION ( 'NONE',  ( -3.491481338843133355E-15, 1.224646799147353207E-16, -1.000000000000000000 ) ) ;
#317 = CARTESIAN_POINT ( 'NONE',  ( 1.047444401652940007E-13, -3.673940397442059178E-15, 30.00000000000000000 ) ) ;
#318 = CARTESIAN_POINT ( 'NONE',  ( 2.444036937190193349E-14, 0.4999999999999963363, 7.000000000000000000 ) ) ;
#319 = CARTESIAN_POINT ( 'NONE',  ( 1.048946819290233835E-15, -3.679210169129008446E-17, 0.3004303095137812463 ) ) ;
#320 = APPROVAL ( #113, 'UNSPECIFIED' ) ;
#321 = AXIS2_PLACEMENT_3D ( 'NONE', #69, #129, #37 ) ;
#322 = CARTESIAN_POINT ( 'NONE',  ( 0.0000000000000000000, 0.0000000000000000000, 0.0000000000000000000 ) ) ;
#323 = DIRECTION ( 'NONE',  ( -3.491481338843133355E-15, 1.224646799147353207E-16, -1.000000000000000000 ) ) ;
#324 = ORIENTED_EDGE ( 'NONE', *, *, #23, .F. ) ;
#325 = DIRECTION ( 'NONE',  ( 3.491481338843133355E-15, -1.224646799147353207E-16, 1.000000000000000000 ) ) ;
#326 = ORIENTED_EDGE ( 'NONE', *, *, #104, .T. ) ;
#327 = CARTESIAN_POINT ( 'NONE',  ( 6.430448897467095820E-14, -0.4999999999999980571, 7.000000000000000000 ) ) ;
#328 = CARTESIAN_POINT ( 'NONE',  ( 6.123233995736705639E-17, -0.4999999999999967804, -6.123233995736747547E-17 ) ) ;
#329 = AXIS2_PLACEMENT_3D ( 'NONE', #137, #241, #95 ) ;
#330 = ORIENTED_EDGE ( 'NONE', *, *, #158, .T. ) ;
#331 = FACE_OUTER_BOUND ( 'NONE', #211, .T. ) ;
#332 = CC_DESIGN_PERSON_AND_ORGANIZATION_ASSIGNMENT ( #176, #202, ( #305 ) ) ;
#333 = APPROVAL_ROLE ( '' ) ;
#334 = CARTESIAN_POINT ( 'NONE',  ( 1.110179159247601212E-15, 0.4999999999999963363, 0.3004303095137813018 ) ) ;
#335 = CARTESIAN_POINT ( 'NONE',  ( 0.0000000000000000000, 0.0000000000000000000, 0.0000000000000000000 ) ) ;
#336 = ADVANCED_FACE ( 'NONE', ( #17 ), #203, .T. ) ;
#337 = CONICAL_SURFACE ( 'NONE', #12, 0.4999999999999963363, 1.029744258676649649 ) ;
ENDSEC;
END-ISO-10303-21;
