ISO-10303-21;
HEADER;
FILE_DESCRIPTION (( 'STEP AP203' ),
    '1' );
FILE_NAME ('255.step',
    '2021-09-03T07:21:34',
    ( '' ),
    ( '' ),
    'SwSTEP 2.0',
    'SolidWorks 2019',
    '' );
FILE_SCHEMA (( 'CONFIG_CONTROL_DESIGN' ));
ENDSEC;

DATA;
#1 = CARTESIAN_POINT ( 'NONE',  ( 5.817072295949869247E-17, -0.4749999999999968137, -5.817072295949908690E-17 ) ) ;
#2 = ORIENTED_EDGE ( 'NONE', *, *, #16, .T. ) ;
#3 = DIRECTION ( 'NONE',  ( 1.798245827342160317E-15, -0.8571673007021098911, 0.5150380749100582634 ) ) ;
#4 = PERSON_AND_ORGANIZATION_ROLE ( 'creator' ) ;
#5 = FACE_OUTER_BOUND ( 'NONE', #254, .T. ) ;
#6 = APPLICATION_CONTEXT ( 'configuration controlled 3d designs of mechanical parts and assemblies' ) ;
#7 = ORIENTED_EDGE ( 'NONE', *, *, #274, .T. ) ;
#8 = LINE ( 'NONE', #283, #181 ) ;
#9 = CARTESIAN_POINT ( 'NONE',  ( 0.0000000000000000000, 0.0000000000000000000, 0.0000000000000000000 ) ) ;
#10 = DIRECTION ( 'NONE',  ( 4.054589356604738220E-31, 1.000000000000000000, 1.141265444721592386E-16 ) ) ;
#11 = CYLINDRICAL_SURFACE ( 'NONE', #321, 0.4749999999999968137 ) ;
#12 = ORIENTED_EDGE ( 'NONE', *, *, #56, .F. ) ;
#13 = AXIS2_PLACEMENT_3D ( 'NONE', #307, #88, #266 ) ;
#14 = CARTESIAN_POINT ( 'NONE',  ( 0.0000000000000000000, 0.0000000000000000000, 0.0000000000000000000 ) ) ;
#15 = DIRECTION ( 'NONE',  ( -3.491481338843133355E-15, 1.224646799147353207E-16, -1.000000000000000000 ) ) ;
#16 = EDGE_CURVE ( 'NONE', #164, #201, #8, .T. ) ;
#17 = LINE ( 'NONE', #207, #302 ) ;
#18 = APPLICATION_CONTEXT ( 'configuration controlled 3d designs of mechanical parts and assemblies' ) ;
#19 = UNCERTAINTY_MEASURE_WITH_UNIT (LENGTH_MEASURE( 1.000000000000000082E-05 ), #149, 'distance_accuracy_value', 'NONE');
#20 = CARTESIAN_POINT ( 'NONE',  ( 2.444036937190193349E-14, -8.572527594031473190E-16, 7.000000000000000000 ) ) ;
#21 = AXIS2_PLACEMENT_3D ( 'NONE', #20, #334, #195 ) ;
#22 = DIRECTION ( 'NONE',  ( -3.491481338843133355E-15, 1.224646799147353207E-16, -1.000000000000000000 ) ) ;
#23 = PERSON_AND_ORGANIZATION ( #163, #303 ) ;
#24 = ORIENTED_EDGE ( 'NONE', *, *, #335, .F. ) ;
#25 = ADVANCED_FACE ( 'NONE', ( #228 ), #143, .T. ) ;
#26 = DATE_AND_TIME ( #285, #226 ) ;
#27 = PERSON_AND_ORGANIZATION_ROLE ( 'design_owner' ) ;
#28 = ADVANCED_FACE ( 'NONE', ( #5 ), #288, .T. ) ;
#29 = DATE_AND_TIME ( #60, #323 ) ;
#30 = VECTOR ( 'NONE', #252, 1000.000000000000114 ) ;
#31 = SECURITY_CLASSIFICATION ( '', '', #104 ) ;
#32 = PLANE ( 'NONE',  #152 ) ;
#33 = VERTEX_POINT ( 'NONE', #146 ) ;
#34 = DIRECTION ( 'NONE',  ( -4.054589356604738220E-31, -1.000000000000000000, -1.141265444721592386E-16 ) ) ;
#35 = MECHANICAL_CONTEXT ( 'NONE', #6, 'mechanical' ) ;
#36 = CARTESIAN_POINT ( 'NONE',  ( 0.0000000000000000000, 0.0000000000000000000, 0.0000000000000000000 ) ) ;
#37 = DIRECTION ( 'NONE',  ( -4.275831445896958607E-31, -1.000000000000000000, -1.224646799147353207E-16 ) ) ;
#38 = FACE_OUTER_BOUND ( 'NONE', #328, .T. ) ;
#39 = VECTOR ( 'NONE', #279, 1000.000000000000000 ) ;
#40 = ORIENTED_EDGE ( 'NONE', *, *, #316, .T. ) ;
#41 = ADVANCED_FACE ( 'NONE', ( #245 ), #11, .T. ) ;
#42 = ORIENTED_EDGE ( 'NONE', *, *, #119, .T. ) ;
#43 = CARTESIAN_POINT ( 'NONE',  ( 1.046219135873155925E-13, -0.3750000000000037192, 30.00000000000000000 ) ) ;
#44 = ORIENTED_EDGE ( 'NONE', *, *, #232, .F. ) ;
#45 = CONICAL_SURFACE ( 'NONE', #250, 0.4749999999999963696, 1.029744258676649649 ) ;
#46 = ADVANCED_FACE ( 'NONE', ( #320 ), #167, .T. ) ;
#47 = DIRECTION ( 'NONE',  ( -3.491481338843133355E-15, 1.224646799147353207E-16, -1.000000000000000000 ) ) ;
#48 = CYLINDRICAL_SURFACE ( 'NONE', #106, 0.4749999999999968137 ) ;
#49 = MANIFOLD_SOLID_BREP ( 'Corps-Déplacer/Copier1[1]', #98 ) ;
#50 = FACE_OUTER_BOUND ( 'NONE', #166, .T. ) ;
#51 = VERTEX_POINT ( 'NONE', #185 ) ;
#52 = CC_DESIGN_PERSON_AND_ORGANIZATION_ASSIGNMENT ( #69, #133, ( #176 ) ) ;
#53 = DIRECTION ( 'NONE',  ( -3.491481338843133355E-15, 1.224646799147353207E-16, -1.000000000000000000 ) ) ;
#54 = DIRECTION ( 'NONE',  ( 0.0000000000000000000, 1.000000000000000000, 0.0000000000000000000 ) ) ;
#55 = CLOSED_SHELL ( 'NONE', ( #286, #72, #224, #41, #198 ) ) ;
#56 = EDGE_CURVE ( 'NONE', #33, #102, #173, .T. ) ;
#57 = ORIENTED_EDGE ( 'NONE', *, *, #322, .F. ) ;
#58 = LINE ( 'NONE', #1, #196 ) ;
#59 = CARTESIAN_POINT ( 'NONE',  ( 2.444036937190193349E-14, 3.561929483821878291E-33, 7.000000000000000000 ) ) ;
#60 = CALENDAR_DATE ( 2021, 3, 9 ) ;
#61 = DIRECTION ( 'NONE',  ( -3.491481338843133355E-15, 1.224646799147353207E-16, -1.000000000000000000 ) ) ;
#62 = ORIENTED_EDGE ( 'NONE', *, *, #251, .T. ) ;
#63 = CIRCLE ( 'NONE', #219, 0.3750000000000000000 ) ;
#64 = APPROVAL_DATE_TIME ( #66, #135 ) ;
#65 = VERTEX_POINT ( 'NONE', #189 ) ;
#66 = DATE_AND_TIME ( #261, #275 ) ;
#67 = PRODUCT_DEFINITION_SHAPE ( 'NONE', 'NONE',  #150 ) ;
#68 = AXIS2_PLACEMENT_3D ( 'NONE', #246, #15, #317 ) ;
#69 = PERSON_AND_ORGANIZATION ( #163, #303 ) ;
#70 = CARTESIAN_POINT ( 'NONE',  ( 1.047444401652940007E-13, -3.673940397442059178E-15, 30.00000000000000000 ) ) ;
#71 = DIRECTION ( 'NONE',  ( -3.491481338843133355E-15, 1.224646799147353207E-16, -1.000000000000000000 ) ) ;
#72 = ADVANCED_FACE ( 'NONE', ( #325 ), #134, .T. ) ;
#73 = ORIENTED_EDGE ( 'NONE', *, *, #235, .T. ) ;
#74 = CARTESIAN_POINT ( 'NONE',  ( 9.964994783257218278E-16, -3.495249660672556390E-17, 0.2854087940380920507 ) ) ;
#75 = EDGE_CURVE ( 'NONE', #99, #197, #304, .T. ) ;
#76 = ORIENTED_EDGE ( 'NONE', *, *, #287, .T. ) ;
#77 = CIRCLE ( 'NONE', #202, 0.4749999999999963696 ) ;
#78 =( GEOMETRIC_REPRESENTATION_CONTEXT ( 3 ) GLOBAL_UNCERTAINTY_ASSIGNED_CONTEXT ( ( #19 ) ) GLOBAL_UNIT_ASSIGNED_CONTEXT ( ( #149, #273, #157 ) ) REPRESENTATION_CONTEXT ( 'NONE', 'WORKASPACE' ) );
#79 = CARTESIAN_POINT ( 'NONE',  ( 1.047444401652940007E-13, 0.3749999999999963363, 30.00000000000000000 ) ) ;
#80 = COORDINATED_UNIVERSAL_TIME_OFFSET ( 1, 0, .AHEAD. ) ;
#81 = CARTESIAN_POINT ( 'NONE',  ( 1.047444401652940007E-13, -3.673940397442059178E-15, 30.00000000000000000 ) ) ;
#82 = AXIS2_PLACEMENT_3D ( 'NONE', #74, #276, #10 ) ;
#83 = CALENDAR_DATE ( 2021, 3, 9 ) ;
#84 = ADVANCED_BREP_SHAPE_REPRESENTATION ( '255', ( #49, #174, #230 ), #78 ) ;
#85 = ORIENTED_EDGE ( 'NONE', *, *, #335, .T. ) ;
#86 = ORIENTED_EDGE ( 'NONE', *, *, #186, .T. ) ;
#87 = CARTESIAN_POINT ( 'NONE',  ( 2.444036937190193349E-14, 0.4749999999999963141, 7.000000000000000000 ) ) ;
#88 = DIRECTION ( 'NONE',  ( -3.491481338843133355E-15, 1.224646799147353207E-16, -1.000000000000000000 ) ) ;
#89 = ORIENTED_EDGE ( 'NONE', *, *, #186, .F. ) ;
#90 = DIRECTION ( 'NONE',  ( -3.491481338843133355E-15, 1.224646799147353207E-16, -1.000000000000000000 ) ) ;
#91 = FACE_OUTER_BOUND ( 'NONE', #281, .T. ) ;
#92 = COORDINATED_UNIVERSAL_TIME_OFFSET ( 1, 0, .AHEAD. ) ;
#93 = EDGE_CURVE ( 'NONE', #65, #99, #190, .T. ) ;
#94 = ORIENTED_EDGE ( 'NONE', *, *, #287, .F. ) ;
#95 = APPROVAL_PERSON_ORGANIZATION ( #229, #103, #293 ) ;
#96 = CC_DESIGN_DATE_AND_TIME_ASSIGNMENT ( #26, #147, ( #31 ) ) ;
#97 = DIRECTION ( 'NONE',  ( -3.491481338843133355E-15, 1.224646799147353207E-16, -1.000000000000000000 ) ) ;
#98 = CLOSED_SHELL ( 'NONE', ( #204, #25, #193, #28, #46, #169 ) ) ;
#99 = VERTEX_POINT ( 'NONE', #123 ) ;
#100 = CC_DESIGN_DATE_AND_TIME_ASSIGNMENT ( #29, #221, ( #150 ) ) ;
#101 = CARTESIAN_POINT ( 'NONE',  ( 9.964994783257218278E-16, -3.495249660672556390E-17, 0.2854087940380920507 ) ) ;
#102 = VERTEX_POINT ( 'NONE', #43 ) ;
#103 = APPROVAL ( #319, 'UNSPECIFIED' ) ;
#104 = SECURITY_CLASSIFICATION_LEVEL ( 'unclassified' ) ;
#105 = DATE_AND_TIME ( #113, #131 ) ;
#106 = AXIS2_PLACEMENT_3D ( 'NONE', #237, #22, #234 ) ;
#107 = DIRECTION ( 'NONE',  ( 1.000000000000000000, 0.0000000000000000000, 0.0000000000000000000 ) ) ;
#108 = CC_DESIGN_PERSON_AND_ORGANIZATION_ASSIGNMENT ( #289, #112, ( #176 ) ) ;
#109 = APPROVAL_DATE_TIME ( #105, #242 ) ;
#110 = ORIENTED_EDGE ( 'NONE', *, *, #75, .T. ) ;
#111 = DIRECTION ( 'NONE',  ( 3.491481338843133355E-15, -1.224646799147353207E-16, 1.000000000000000000 ) ) ;
#112 = PERSON_AND_ORGANIZATION_ROLE ( 'creator' ) ;
#113 = CALENDAR_DATE ( 2021, 3, 9 ) ;
#114 = ORIENTED_EDGE ( 'NONE', *, *, #333, .F. ) ;
#115 = AXIS2_PLACEMENT_3D ( 'NONE', #59, #290, #37 ) ;
#116 = APPROVAL_ROLE ( '' ) ;
#117 = DIRECTION ( 'NONE',  ( -3.491481338843133355E-15, 1.224646799147353207E-16, -1.000000000000000000 ) ) ;
#118 = DIRECTION ( 'NONE',  ( 0.0000000000000000000, 1.000000000000000000, 0.0000000000000000000 ) ) ;
#119 = EDGE_CURVE ( 'NONE', #102, #33, #63, .T. ) ;
#120 = CARTESIAN_POINT ( 'NONE',  ( 9.964994783257216306E-16, -0.4749999999999964251, 0.2854087940380919952 ) ) ;
#121 = APPROVAL_STATUS ( 'not_yet_approved' ) ;
#122 = ORIENTED_EDGE ( 'NONE', *, *, #333, .T. ) ;
#123 = CARTESIAN_POINT ( 'NONE',  ( 6.447600142461523766E-14, -0.4749999999999980349, 7.000000000000000000 ) ) ;
#124 = ORIENTED_EDGE ( 'NONE', *, *, #93, .T. ) ;
#125 = AXIS2_PLACEMENT_3D ( 'NONE', #151, #130, #129 ) ;
#126 = APPROVAL_ROLE ( '' ) ;
#127 = APPROVAL_PERSON_ORGANIZATION ( #206, #242, #126 ) ;
#128 = PRODUCT_RELATED_PRODUCT_CATEGORY ( 'detail', '', ( #180 ) ) ;
#129 = DIRECTION ( 'NONE',  ( 0.0000000000000000000, 1.000000000000000000, 0.0000000000000000000 ) ) ;
#130 = DIRECTION ( 'NONE',  ( -3.491481338843133355E-15, 1.224646799147353207E-16, -1.000000000000000000 ) ) ;
#131 = LOCAL_TIME ( 9, 21, 34.00000000000000000, #80 ) ;
#132 = DIRECTION ( 'NONE',  ( -3.491481338843133355E-15, 1.224646799147353207E-16, -1.000000000000000000 ) ) ;
#133 = PERSON_AND_ORGANIZATION_ROLE ( 'design_supplier' ) ;
#134 = CONICAL_SURFACE ( 'NONE', #256, 0.4749999999999963696, 1.029744258676649649 ) ;
#135 = APPROVAL ( #310, 'UNSPECIFIED' ) ;
#136 = LOCAL_TIME ( 9, 21, 34.00000000000000000, #268 ) ;
#137 = LINE ( 'NONE', #192, #305 ) ;
#138 = ORIENTED_EDGE ( 'NONE', *, *, #322, .T. ) ;
#139 = DIRECTION ( 'NONE',  ( -3.491481338843133355E-15, 1.224646799147353207E-16, -1.000000000000000000 ) ) ;
#140 = ORIENTED_EDGE ( 'NONE', *, *, #162, .T. ) ;
#141 = FACE_OUTER_BOUND ( 'NONE', #247, .T. ) ;
#142 = PLANE ( 'NONE',  #115 ) ;
#143 = CYLINDRICAL_SURFACE ( 'NONE', #145, 0.4749999999999985900 ) ;
#144 = CARTESIAN_POINT ( 'NONE',  ( 1.054670201285220865E-15, 0.4749999999999963141, 0.2854087940380921062 ) ) ;
#145 = AXIS2_PLACEMENT_3D ( 'NONE', #36, #243, #225 ) ;
#146 = CARTESIAN_POINT ( 'NONE',  ( 1.047444401652940007E-13, 0.3749999999999963363, 30.00000000000000000 ) ) ;
#147 = DATE_TIME_ROLE ( 'classification_date' ) ;
#148 = EDGE_LOOP ( 'NONE', ( #160, #42, #222, #292 ) ) ;
#149 =( LENGTH_UNIT ( ) NAMED_UNIT ( * ) SI_UNIT ( .MILLI., .METRE. ) );
#150 = PRODUCT_DEFINITION ( 'UNKNOWN', '', #176, #253 ) ;
#151 = CARTESIAN_POINT ( 'NONE',  ( 1.047444401652940007E-13, -3.673940397442059178E-15, 30.00000000000000000 ) ) ;
#152 = AXIS2_PLACEMENT_3D ( 'NONE', #223, #309, #244 ) ;
#153 = CC_DESIGN_APPROVAL ( #135, ( #150 ) ) ;
#154 = CARTESIAN_POINT ( 'NONE',  ( 2.444036937190193349E-14, 3.561929483821878291E-33, 7.000000000000000000 ) ) ;
#155 = DIRECTION ( 'NONE',  ( 3.491481338843133355E-15, -1.224646799147353207E-16, 1.000000000000000000 ) ) ;
#156 = FACE_OUTER_BOUND ( 'NONE', #249, .T. ) ;
#157 =( NAMED_UNIT ( * ) SI_UNIT ( $, .STERADIAN. ) SOLID_ANGLE_UNIT ( ) );
#158 = CIRCLE ( 'NONE', #248, 0.4749999999999999778 ) ;
#159 = CARTESIAN_POINT ( 'NONE',  ( 1.043952920314096810E-13, -3.661693929450586610E-15, 29.89999999999999858 ) ) ;
#160 = ORIENTED_EDGE ( 'NONE', *, *, #205, .F. ) ;
#161 = PERSON_AND_ORGANIZATION_ROLE ( 'classification_officer' ) ;
#162 = EDGE_CURVE ( 'NONE', #308, #65, #158, .T. ) ;
#163 = PERSON ( 'UNSPECIFIED', 'UNSPECIFIED', 'UNSPECIFIED', ('UNSPECIFIED'), ('UNSPECIFIED'), ('UNSPECIFIED') ) ;
#164 = VERTEX_POINT ( 'NONE', #9 ) ;
#165 = CARTESIAN_POINT ( 'NONE',  ( 1.047903644202620232E-13, -0.3750000000000037192, 30.00000000000000000 ) ) ;
#166 = EDGE_LOOP ( 'NONE', ( #62, #110 ) ) ;
#167 = CONICAL_SURFACE ( 'NONE', #312, 0.3750000000000000000, 0.7853981633974512766 ) ;
#168 = CIRCLE ( 'NONE', #82, 0.4749999999999963696 ) ;
#169 = ADVANCED_FACE ( 'NONE', ( #141 ), #32, .F. ) ;
#170 = CARTESIAN_POINT ( 'NONE',  ( 0.0000000000000000000, 0.0000000000000000000, 0.0000000000000000000 ) ) ;
#171 = DIRECTION ( 'NONE',  ( -3.491481338843133355E-15, 1.224646799147353207E-16, -1.000000000000000000 ) ) ;
#172 = DIRECTION ( 'NONE',  ( -3.491481338843133355E-15, 1.224646799147353207E-16, -1.000000000000000000 ) ) ;
#173 = CIRCLE ( 'NONE', #125, 0.3750000000000000000 ) ;
#174 = MANIFOLD_SOLID_BREP ( 'Corps-Déplacer/Copier1[2]', #55 ) ;
#175 = LINE ( 'NONE', #79, #30 ) ;
#176 = PRODUCT_DEFINITION_FORMATION_WITH_SPECIFIED_SOURCE ( 'ANY', '', #180, .NOT_KNOWN. ) ;
#177 = CC_DESIGN_PERSON_AND_ORGANIZATION_ASSIGNMENT ( #23, #161, ( #31 ) ) ;
#178 = DIRECTION ( 'NONE',  ( 0.0000000000000000000, 1.000000000000000000, 0.0000000000000000000 ) ) ;
#179 = PERSON_AND_ORGANIZATION ( #163, #303 ) ;
#180 = PRODUCT ( '255', '255', '', ( #35 ) ) ;
#181 = VECTOR ( 'NONE', #200, 999.9999999999998863 ) ;
#182 = PERSON_AND_ORGANIZATION ( #163, #303 ) ;
#183 = DIRECTION ( 'NONE',  ( 0.0000000000000000000, 1.000000000000000000, 0.0000000000000000000 ) ) ;
#184 = APPROVAL_DATE_TIME ( #297, #103 ) ;
#185 = CARTESIAN_POINT ( 'NONE',  ( 1.277660514807330747E-14, -0.4749999999999980904, 7.000000000000000000 ) ) ;
#186 = EDGE_CURVE ( 'NONE', #258, #201, #301, .T. ) ;
#187 = EDGE_LOOP ( 'NONE', ( #94, #122, #86, #57 ) ) ;
#188 = DIRECTION ( 'NONE',  ( -3.491481338843133355E-15, 1.224646799147353207E-16, -1.000000000000000000 ) ) ;
#189 = CARTESIAN_POINT ( 'NONE',  ( 6.447600142461507357E-14, -0.4750000000000037526, 29.89999999999999858 ) ) ;
#190 = LINE ( 'NONE', #278, #330 ) ;
#191 = ORIENTED_EDGE ( 'NONE', *, *, #16, .F. ) ;
#192 = CARTESIAN_POINT ( 'NONE',  ( 9.964994783257216306E-16, -0.4749999999999964251, 0.2854087940380919952 ) ) ;
#193 = ADVANCED_FACE ( 'NONE', ( #50 ), #300, .F. ) ;
#194 = DIRECTION ( 'NONE',  ( -2.382254525458708792E-15, -0.7071067811865495711, -0.7071067811865455743 ) ) ;
#195 = DIRECTION ( 'NONE',  ( 0.0000000000000000000, 1.000000000000000000, 0.0000000000000000000 ) ) ;
#196 = VECTOR ( 'NONE', #61, 1000.000000000000000 ) ;
#197 = VERTEX_POINT ( 'NONE', #87 ) ;
#198 = ADVANCED_FACE ( 'NONE', ( #91 ), #142, .T. ) ;
#199 = PERSON_AND_ORGANIZATION ( #163, #303 ) ;
#200 = DIRECTION ( 'NONE',  ( 1.903218546456022717E-15, 0.8571673007021097801, 0.5150380749100585964 ) ) ;
#201 = VERTEX_POINT ( 'NONE', #144 ) ;
#202 = AXIS2_PLACEMENT_3D ( 'NONE', #284, #53, #277 ) ;
#203 = AXIS2_PLACEMENT_3D ( 'NONE', #280, #139, #54 ) ;
#204 = ADVANCED_FACE ( 'NONE', ( #38 ), #296, .T. ) ;
#205 = EDGE_CURVE ( 'NONE', #102, #65, #295, .T. ) ;
#206 = PERSON_AND_ORGANIZATION ( #163, #303 ) ;
#207 = CARTESIAN_POINT ( 'NONE',  ( 2.031019936801049164E-31, 0.4749999999999985900, 5.817072295949911156E-17 ) ) ;
#208 = CARTESIAN_POINT ( 'NONE',  ( 9.964994783257218278E-16, -3.495249660672556390E-17, 0.2854087940380920507 ) ) ;
#209 = APPLICATION_PROTOCOL_DEFINITION ( 'international standard', 'config_control_design', 1994, #18 ) ;
#210 = DIRECTION ( 'NONE',  ( 0.0000000000000000000, 1.000000000000000000, 0.0000000000000000000 ) ) ;
#211 = AXIS2_PLACEMENT_3D ( 'NONE', #294, #171, #118 ) ;
#212 = CARTESIAN_POINT ( 'NONE',  ( 2.031019936801041719E-31, 0.4749999999999968137, 5.817072295949887736E-17 ) ) ;
#213 = ORIENTED_EDGE ( 'NONE', *, *, #119, .F. ) ;
#214 = CARTESIAN_POINT ( 'NONE',  ( 1.043952920314096810E-13, 0.4749999999999963141, 29.89999999999999858 ) ) ;
#215 = AXIS2_PLACEMENT_3D ( 'NONE', #170, #90, #267 ) ;
#216 = ORIENTED_EDGE ( 'NONE', *, *, #205, .T. ) ;
#217 = ORIENTED_EDGE ( 'NONE', *, *, #162, .F. ) ;
#218 = COORDINATED_UNIVERSAL_TIME_OFFSET ( 1, 0, .AHEAD. ) ;
#219 = AXIS2_PLACEMENT_3D ( 'NONE', #81, #132, #332 ) ;
#220 = ORIENTED_EDGE ( 'NONE', *, *, #251, .F. ) ;
#221 = DATE_TIME_ROLE ( 'creation_date' ) ;
#222 = ORIENTED_EDGE ( 'NONE', *, *, #299, .T. ) ;
#223 = CARTESIAN_POINT ( 'NONE',  ( 1.047444401652940007E-13, 2.812049592490927934E-33, 30.00000000000000000 ) ) ;
#224 = ADVANCED_FACE ( 'NONE', ( #255 ), #45, .T. ) ;
#225 = DIRECTION ( 'NONE',  ( 4.275831445896958607E-31, 1.000000000000000000, 1.224646799147353454E-16 ) ) ;
#226 = LOCAL_TIME ( 9, 21, 34.00000000000000000, #236 ) ;
#227 = APPLICATION_PROTOCOL_DEFINITION ( 'international standard', 'config_control_design', 1994, #6 ) ;
#228 = FACE_OUTER_BOUND ( 'NONE', #318, .T. ) ;
#229 = PERSON_AND_ORGANIZATION ( #163, #303 ) ;
#230 = AXIS2_PLACEMENT_3D ( 'NONE', #306, #239, #107 ) ;
#231 = SHAPE_DEFINITION_REPRESENTATION ( #67, #84 ) ;
#232 = EDGE_CURVE ( 'NONE', #201, #337, #168, .T. ) ;
#233 = AXIS2_PLACEMENT_3D ( 'NONE', #154, #329, #315 ) ;
#234 = DIRECTION ( 'NONE',  ( 4.275831445896958607E-31, 1.000000000000000000, 1.224646799147352961E-16 ) ) ;
#235 = EDGE_CURVE ( 'NONE', #65, #308, #269, .T. ) ;
#236 = COORDINATED_UNIVERSAL_TIME_OFFSET ( 1, 0, .AHEAD. ) ;
#237 = CARTESIAN_POINT ( 'NONE',  ( 0.0000000000000000000, 0.0000000000000000000, 0.0000000000000000000 ) ) ;
#238 = CIRCLE ( 'NONE', #21, 0.4749999999999972022 ) ;
#239 = DIRECTION ( 'NONE',  ( 0.0000000000000000000, 0.0000000000000000000, 1.000000000000000000 ) ) ;
#240 = CIRCLE ( 'NONE', #211, 0.4749999999999972022 ) ;
#241 = CC_DESIGN_APPROVAL ( #242, ( #176 ) ) ;
#242 = APPROVAL ( #121, 'UNSPECIFIED' ) ;
#243 = DIRECTION ( 'NONE',  ( -3.491481338843133355E-15, 1.224646799147353207E-16, -1.000000000000000000 ) ) ;
#244 = DIRECTION ( 'NONE',  ( 4.275831445896958607E-31, 1.000000000000000000, 1.224646799147353207E-16 ) ) ;
#245 = FACE_OUTER_BOUND ( 'NONE', #187, .T. ) ;
#246 = CARTESIAN_POINT ( 'NONE',  ( 1.047444401652940007E-13, -3.673940397442059178E-15, 30.00000000000000000 ) ) ;
#247 = EDGE_LOOP ( 'NONE', ( #12, #213 ) ) ;
#248 = AXIS2_PLACEMENT_3D ( 'NONE', #159, #172, #178 ) ;
#249 = EDGE_LOOP ( 'NONE', ( #85, #76, #44, #89 ) ) ;
#250 = AXIS2_PLACEMENT_3D ( 'NONE', #101, #111, #34 ) ;
#251 = EDGE_CURVE ( 'NONE', #197, #99, #240, .T. ) ;
#252 = DIRECTION ( 'NONE',  ( -2.468850131082257455E-15, 0.7071067811865497932, -0.7071067811865453523 ) ) ;
#253 = DESIGN_CONTEXT ( 'detailed design', #18, 'design' ) ;
#254 = EDGE_LOOP ( 'NONE', ( #326, #73, #7, #282 ) ) ;
#255 = FACE_OUTER_BOUND ( 'NONE', #259, .T. ) ;
#256 = AXIS2_PLACEMENT_3D ( 'NONE', #208, #155, #327 ) ;
#257 = CC_DESIGN_PERSON_AND_ORGANIZATION_ASSIGNMENT ( #199, #4, ( #150 ) ) ;
#258 = VERTEX_POINT ( 'NONE', #324 ) ;
#259 = EDGE_LOOP ( 'NONE', ( #191, #40, #138 ) ) ;
#260 = ORIENTED_EDGE ( 'NONE', *, *, #316, .F. ) ;
#261 = CALENDAR_DATE ( 2021, 3, 9 ) ;
#262 = ORIENTED_EDGE ( 'NONE', *, *, #232, .T. ) ;
#263 = APPROVAL_PERSON_ORGANIZATION ( #182, #135, #116 ) ;
#264 = ORIENTED_EDGE ( 'NONE', *, *, #274, .F. ) ;
#265 = ORIENTED_EDGE ( 'NONE', *, *, #299, .F. ) ;
#266 = DIRECTION ( 'NONE',  ( 0.0000000000000000000, 1.000000000000000000, 0.0000000000000000000 ) ) ;
#267 = DIRECTION ( 'NONE',  ( 4.275831445896958607E-31, 1.000000000000000000, 1.224646799147353454E-16 ) ) ;
#268 = COORDINATED_UNIVERSAL_TIME_OFFSET ( 1, 0, .AHEAD. ) ;
#269 = CIRCLE ( 'NONE', #13, 0.4749999999999999778 ) ;
#270 = CC_DESIGN_SECURITY_CLASSIFICATION ( #31, ( #176 ) ) ;
#271 = CC_DESIGN_PERSON_AND_ORGANIZATION_ASSIGNMENT ( #179, #27, ( #180 ) ) ;
#272 = CARTESIAN_POINT ( 'NONE',  ( 2.444036937190193349E-14, -8.572527594031473190E-16, 7.000000000000000000 ) ) ;
#273 =( NAMED_UNIT ( * ) PLANE_ANGLE_UNIT ( ) SI_UNIT ( $, .RADIAN. ) );
#274 = EDGE_CURVE ( 'NONE', #308, #197, #17, .T. ) ;
#275 = LOCAL_TIME ( 9, 21, 34.00000000000000000, #92 ) ;
#276 = DIRECTION ( 'NONE',  ( -3.491481338843133355E-15, 1.224646799147353207E-16, -1.000000000000000000 ) ) ;
#277 = DIRECTION ( 'NONE',  ( 4.054589356604738220E-31, 1.000000000000000000, 1.141265444721592386E-16 ) ) ;
#278 = CARTESIAN_POINT ( 'NONE',  ( 5.817072295949890202E-17, -0.4749999999999985900, -5.817072295949930877E-17 ) ) ;
#279 = DIRECTION ( 'NONE',  ( -3.491481338843133355E-15, 1.224646799147353207E-16, -1.000000000000000000 ) ) ;
#280 = CARTESIAN_POINT ( 'NONE',  ( 2.444036937190193349E-14, -8.572527594031473190E-16, 7.000000000000000000 ) ) ;
#281 = EDGE_LOOP ( 'NONE', ( #24, #114 ) ) ;
#282 = ORIENTED_EDGE ( 'NONE', *, *, #75, .F. ) ;
#283 = CARTESIAN_POINT ( 'NONE',  ( 1.054670201285220865E-15, 0.4749999999999963141, 0.2854087940380921062 ) ) ;
#284 = CARTESIAN_POINT ( 'NONE',  ( 9.964994783257218278E-16, -3.495249660672556390E-17, 0.2854087940380920507 ) ) ;
#285 = CALENDAR_DATE ( 2021, 3, 9 ) ;
#286 = ADVANCED_FACE ( 'NONE', ( #156 ), #48, .T. ) ;
#287 = EDGE_CURVE ( 'NONE', #51, #337, #58, .T. ) ;
#288 = CYLINDRICAL_SURFACE ( 'NONE', #215, 0.4749999999999985900 ) ;
#289 = PERSON_AND_ORGANIZATION ( #163, #303 ) ;
#290 = DIRECTION ( 'NONE',  ( 3.491481338843133355E-15, -1.224646799147353207E-16, 1.000000000000000000 ) ) ;
#291 = AXIS2_PLACEMENT_3D ( 'NONE', #272, #97, #210 ) ;
#292 = ORIENTED_EDGE ( 'NONE', *, *, #235, .F. ) ;
#293 = APPROVAL_ROLE ( '' ) ;
#294 = CARTESIAN_POINT ( 'NONE',  ( 2.444036937190193349E-14, -8.572527594031473190E-16, 7.000000000000000000 ) ) ;
#295 = LINE ( 'NONE', #165, #336 ) ;
#296 = CONICAL_SURFACE ( 'NONE', #68, 0.3750000000000000000, 0.7853981633974512766 ) ;
#297 = DATE_AND_TIME ( #83, #136 ) ;
#298 = DIRECTION ( 'NONE',  ( 4.275831445896958607E-31, 1.000000000000000000, 1.224646799147352961E-16 ) ) ;
#299 = EDGE_CURVE ( 'NONE', #33, #308, #175, .T. ) ;
#300 = PLANE ( 'NONE',  #233 ) ;
#301 = LINE ( 'NONE', #212, #39 ) ;
#302 = VECTOR ( 'NONE', #188, 1000.000000000000000 ) ;
#303 = ORGANIZATION ( 'UNSPECIFIED', 'UNSPECIFIED', '' ) ;
#304 = CIRCLE ( 'NONE', #291, 0.4749999999999972022 ) ;
#305 = VECTOR ( 'NONE', #3, 1000.000000000000000 ) ;
#306 = CARTESIAN_POINT ( 'NONE',  ( 0.0000000000000000000, 0.0000000000000000000, 0.0000000000000000000 ) ) ;
#307 = CARTESIAN_POINT ( 'NONE',  ( 1.043952920314096810E-13, -3.661693929450586610E-15, 29.89999999999999858 ) ) ;
#308 = VERTEX_POINT ( 'NONE', #214 ) ;
#309 = DIRECTION ( 'NONE',  ( -3.491481338843133355E-15, 1.224646799147353207E-16, -1.000000000000000000 ) ) ;
#310 = APPROVAL_STATUS ( 'not_yet_approved' ) ;
#311 = EDGE_LOOP ( 'NONE', ( #260, #2, #262 ) ) ;
#312 = AXIS2_PLACEMENT_3D ( 'NONE', #70, #71, #183 ) ;
#313 = CC_DESIGN_APPROVAL ( #103, ( #31 ) ) ;
#314 = ORIENTED_EDGE ( 'NONE', *, *, #56, .T. ) ;
#315 = DIRECTION ( 'NONE',  ( -4.275831445896958607E-31, -1.000000000000000000, -1.224646799147353207E-16 ) ) ;
#316 = EDGE_CURVE ( 'NONE', #164, #337, #137, .T. ) ;
#317 = DIRECTION ( 'NONE',  ( 0.0000000000000000000, 1.000000000000000000, 0.0000000000000000000 ) ) ;
#318 = EDGE_LOOP ( 'NONE', ( #140, #124, #220, #264 ) ) ;
#319 = APPROVAL_STATUS ( 'not_yet_approved' ) ;
#320 = FACE_OUTER_BOUND ( 'NONE', #148, .T. ) ;
#321 = AXIS2_PLACEMENT_3D ( 'NONE', #14, #117, #298 ) ;
#322 = EDGE_CURVE ( 'NONE', #337, #201, #77, .T. ) ;
#323 = LOCAL_TIME ( 9, 21, 34.00000000000000000, #218 ) ;
#324 = CARTESIAN_POINT ( 'NONE',  ( 2.444036937190193349E-14, 0.4749999999999963141, 7.000000000000000000 ) ) ;
#325 = FACE_OUTER_BOUND ( 'NONE', #311, .T. ) ;
#326 = ORIENTED_EDGE ( 'NONE', *, *, #93, .F. ) ;
#327 = DIRECTION ( 'NONE',  ( -4.054589356604738220E-31, -1.000000000000000000, -1.141265444721592386E-16 ) ) ;
#328 = EDGE_LOOP ( 'NONE', ( #314, #216, #217, #265 ) ) ;
#329 = DIRECTION ( 'NONE',  ( 3.491481338843133355E-15, -1.224646799147353207E-16, 1.000000000000000000 ) ) ;
#330 = VECTOR ( 'NONE', #47, 1000.000000000000000 ) ;
#331 = CIRCLE ( 'NONE', #203, 0.4749999999999972022 ) ;
#332 = DIRECTION ( 'NONE',  ( 0.0000000000000000000, 1.000000000000000000, 0.0000000000000000000 ) ) ;
#333 = EDGE_CURVE ( 'NONE', #51, #258, #238, .T. ) ;
#334 = DIRECTION ( 'NONE',  ( -3.491481338843133355E-15, 1.224646799147353207E-16, -1.000000000000000000 ) ) ;
#335 = EDGE_CURVE ( 'NONE', #258, #51, #331, .T. ) ;
#336 = VECTOR ( 'NONE', #194, 1000.000000000000114 ) ;
#337 = VERTEX_POINT ( 'NONE', #120 ) ;
ENDSEC;
END-ISO-10303-21;
