ISO-10303-21;
HEADER;
FILE_DESCRIPTION (( 'STEP AP203' ),
    '1' );
FILE_NAME ('254.step',
    '2021-09-03T07:21:33',
    ( '' ),
    ( '' ),
    'SwSTEP 2.0',
    'SolidWorks 2019',
    '' );
FILE_SCHEMA (( 'CONFIG_CONTROL_DESIGN' ));
ENDSEC;

DATA;
#1 =( LENGTH_UNIT ( ) NAMED_UNIT ( * ) SI_UNIT ( .MILLI., .METRE. ) );
#2 = DATE_TIME_ROLE ( 'creation_date' ) ;
#3 = ADVANCED_FACE ( 'NONE', ( #36 ), #196, .T. ) ;
#4 = ORIENTED_EDGE ( 'NONE', *, *, #114, .F. ) ;
#5 = AXIS2_PLACEMENT_3D ( 'NONE', #280, #42, #39 ) ;
#6 = CARTESIAN_POINT ( 'NONE',  ( 9.440521373612094261E-16, -0.4499999999999964029, 0.2703872785624027997 ) ) ;
#7 = FACE_OUTER_BOUND ( 'NONE', #170, .T. ) ;
#8 = CARTESIAN_POINT ( 'NONE',  ( 1.047444401652940007E-13, -3.673940397442059178E-15, 30.00000000000000000 ) ) ;
#9 = CARTESIAN_POINT ( 'NONE',  ( 1.047444401652940007E-13, -3.673940397442059178E-15, 30.00000000000000000 ) ) ;
#10 = FACE_OUTER_BOUND ( 'NONE', #55, .T. ) ;
#11 = AXIS2_PLACEMENT_3D ( 'NONE', #140, #143, #316 ) ;
#12 = DIRECTION ( 'NONE',  ( -3.491481338843133355E-15, 1.224646799147353207E-16, -1.000000000000000000 ) ) ;
#13 = DIRECTION ( 'NONE',  ( 0.0000000000000000000, 1.000000000000000000, 0.0000000000000000000 ) ) ;
#14 = VERTEX_POINT ( 'NONE', #219 ) ;
#15 = CARTESIAN_POINT ( 'NONE',  ( 1.043952920314096810E-13, -3.661693929450586610E-15, 29.89999999999999858 ) ) ;
#16 = ORIENTED_EDGE ( 'NONE', *, *, #253, .T. ) ;
#17 = EDGE_CURVE ( 'NONE', #64, #66, #333, .T. ) ;
#18 = AXIS2_PLACEMENT_3D ( 'NONE', #318, #119, #122 ) ;
#19 = AXIS2_PLACEMENT_3D ( 'NONE', #199, #141, #301 ) ;
#20 = APPROVAL_ROLE ( '' ) ;
#21 = ORIENTED_EDGE ( 'NONE', *, *, #295, .F. ) ;
#22 = CIRCLE ( 'NONE', #62, 0.4499999999999971800 ) ;
#23 = VERTEX_POINT ( 'NONE', #69 ) ;
#24 = VERTEX_POINT ( 'NONE', #40 ) ;
#25 = ADVANCED_FACE ( 'NONE', ( #10 ), #180, .T. ) ;
#26 = ORIENTED_EDGE ( 'NONE', *, *, #151, .T. ) ;
#27 = DATE_AND_TIME ( #264, #262 ) ;
#28 = AXIS2_PLACEMENT_3D ( 'NONE', #65, #329, #179 ) ;
#29 = DIRECTION ( 'NONE',  ( -3.491481338843133355E-15, 1.224646799147353207E-16, -1.000000000000000000 ) ) ;
#30 = VERTEX_POINT ( 'NONE', #148 ) ;
#31 = FACE_OUTER_BOUND ( 'NONE', #324, .T. ) ;
#32 = DIRECTION ( 'NONE',  ( 0.0000000000000000000, 1.000000000000000000, 0.0000000000000000000 ) ) ;
#33 = FACE_OUTER_BOUND ( 'NONE', #45, .T. ) ;
#34 = CARTESIAN_POINT ( 'NONE',  ( 5.510910596163031007E-17, -0.4499999999999967359, -5.510910596163068601E-17 ) ) ;
#35 = PRODUCT_DEFINITION_FORMATION_WITH_SPECIFIED_SOURCE ( 'ANY', '', #133, .NOT_KNOWN. ) ;
#36 = FACE_OUTER_BOUND ( 'NONE', #319, .T. ) ;
#37 = APPROVAL ( #207, 'UNSPECIFIED' ) ;
#38 = CYLINDRICAL_SURFACE ( 'NONE', #80, 0.4499999999999985678 ) ;
#39 = DIRECTION ( 'NONE',  ( 4.279844320860559053E-31, 1.000000000000000000, 1.204669080539459204E-16 ) ) ;
#40 = CARTESIAN_POINT ( 'NONE',  ( 0.0000000000000000000, 0.0000000000000000000, 0.0000000000000000000 ) ) ;
#41 = AXIS2_PLACEMENT_3D ( 'NONE', #95, #211, #176 ) ;
#42 = DIRECTION ( 'NONE',  ( -3.491481338843133355E-15, 1.224646799147353207E-16, -1.000000000000000000 ) ) ;
#43 = DIRECTION ( 'NONE',  ( -3.491481338843133355E-15, 1.224646799147353207E-16, -1.000000000000000000 ) ) ;
#44 = CARTESIAN_POINT ( 'NONE',  ( 9.440521373612096233E-16, -3.311289152216104335E-17, 0.2703872785624028552 ) ) ;
#45 = EDGE_LOOP ( 'NONE', ( #21, #284, #269, #53 ) ) ;
#46 = CARTESIAN_POINT ( 'NONE',  ( 0.0000000000000000000, 0.0000000000000000000, 0.0000000000000000000 ) ) ;
#47 = MANIFOLD_SOLID_BREP ( 'Corps-Déplacer/Copier1[1]', #135 ) ;
#48 = DIRECTION ( 'NONE',  ( 0.0000000000000000000, 0.0000000000000000000, 1.000000000000000000 ) ) ;
#49 = CONICAL_SURFACE ( 'NONE', #308, 0.4499999999999963474, 1.029744258676649649 ) ;
#50 = CC_DESIGN_PERSON_AND_ORGANIZATION_ASSIGNMENT ( #275, #255, ( #78 ) ) ;
#51 = CARTESIAN_POINT ( 'NONE',  ( 2.444036937190193349E-14, -8.572527594031473190E-16, 7.000000000000000000 ) ) ;
#52 = APPROVAL_ROLE ( '' ) ;
#53 = ORIENTED_EDGE ( 'NONE', *, *, #312, .F. ) ;
#54 = DIRECTION ( 'NONE',  ( -3.491481338843133355E-15, 1.224646799147353207E-16, -1.000000000000000000 ) ) ;
#55 = EDGE_LOOP ( 'NONE', ( #216, #120 ) ) ;
#56 = CIRCLE ( 'NONE', #5, 0.4499999999999963474 ) ;
#57 = COORDINATED_UNIVERSAL_TIME_OFFSET ( 1, 0, .AHEAD. ) ;
#58 = ORIENTED_EDGE ( 'NONE', *, *, #157, .T. ) ;
#59 = ADVANCED_FACE ( 'NONE', ( #92 ), #38, .T. ) ;
#60 = DATE_AND_TIME ( #90, #186 ) ;
#61 = PRODUCT_RELATED_PRODUCT_CATEGORY ( 'detail', '', ( #133 ) ) ;
#62 = AXIS2_PLACEMENT_3D ( 'NONE', #89, #249, #13 ) ;
#63 = PERSON_AND_ORGANIZATION ( #235, #307 ) ;
#64 = VERTEX_POINT ( 'NONE', #98 ) ;
#65 = CARTESIAN_POINT ( 'NONE',  ( 0.0000000000000000000, 0.0000000000000000000, 0.0000000000000000000 ) ) ;
#66 = VERTEX_POINT ( 'NONE', #215 ) ;
#67 = DIRECTION ( 'NONE',  ( -3.491481338843133355E-15, 1.224646799147353207E-16, -1.000000000000000000 ) ) ;
#68 = APPROVAL_PERSON_ORGANIZATION ( #223, #302, #52 ) ;
#69 = CARTESIAN_POINT ( 'NONE',  ( 6.447293980761737622E-14, -0.4499999999999980127, 7.000000000000000000 ) ) ;
#70 = DIRECTION ( 'NONE',  ( 3.491481338843133355E-15, -1.224646799147353207E-16, 1.000000000000000000 ) ) ;
#71 = EDGE_LOOP ( 'NONE', ( #16, #26 ) ) ;
#72 = DESIGN_CONTEXT ( 'detailed design', #112, 'design' ) ;
#73 = EDGE_CURVE ( 'NONE', #24, #14, #81, .T. ) ;
#74 = ORIENTED_EDGE ( 'NONE', *, *, #17, .F. ) ;
#75 = PRODUCT_DEFINITION_SHAPE ( 'NONE', 'NONE',  #78 ) ;
#76 = UNCERTAINTY_MEASURE_WITH_UNIT (LENGTH_MEASURE( 1.000000000000000082E-05 ), #1, 'distance_accuracy_value', 'NONE');
#77 = DATE_AND_TIME ( #124, #273 ) ;
#78 = PRODUCT_DEFINITION ( 'UNKNOWN', '', #35, #72 ) ;
#79 = LINE ( 'NONE', #159, #232 ) ;
#80 = AXIS2_PLACEMENT_3D ( 'NONE', #86, #315, #282 ) ;
#81 = LINE ( 'NONE', #6, #158 ) ;
#82 = ORIENTED_EDGE ( 'NONE', *, *, #162, .F. ) ;
#83 = LINE ( 'NONE', #34, #254 ) ;
#84 = CC_DESIGN_PERSON_AND_ORGANIZATION_ASSIGNMENT ( #149, #305, ( #133 ) ) ;
#85 = DIRECTION ( 'NONE',  ( -4.279844320860559053E-31, -1.000000000000000000, -1.204669080539459204E-16 ) ) ;
#86 = CARTESIAN_POINT ( 'NONE',  ( 0.0000000000000000000, 0.0000000000000000000, 0.0000000000000000000 ) ) ;
#87 = CIRCLE ( 'NONE', #258, 0.4499999999999971800 ) ;
#88 = FACE_OUTER_BOUND ( 'NONE', #147, .T. ) ;
#89 = CARTESIAN_POINT ( 'NONE',  ( 2.444036937190193349E-14, -8.572527594031473190E-16, 7.000000000000000000 ) ) ;
#90 = CALENDAR_DATE ( 2021, 3, 9 ) ;
#91 = ADVANCED_FACE ( 'NONE', ( #218 ), #229, .F. ) ;
#92 = FACE_OUTER_BOUND ( 'NONE', #265, .T. ) ;
#93 = LOCAL_TIME ( 9, 21, 33.00000000000000000, #238 ) ;
#94 = APPROVAL_ROLE ( '' ) ;
#95 = CARTESIAN_POINT ( 'NONE',  ( 2.444036937190193349E-14, -8.572527594031473190E-16, 7.000000000000000000 ) ) ;
#96 = APPLICATION_CONTEXT ( 'configuration controlled 3d designs of mechanical parts and assemblies' ) ;
#97 = VECTOR ( 'NONE', #155, 1000.000000000000114 ) ;
#98 = CARTESIAN_POINT ( 'NONE',  ( 1.043952920314096810E-13, 0.4499999999999962919, 29.89999999999999858 ) ) ;
#99 = DIRECTION ( 'NONE',  ( -3.491481338843133355E-15, 1.224646799147353207E-16, -1.000000000000000000 ) ) ;
#100 = CIRCLE ( 'NONE', #314, 0.3499999999999999778 ) ;
#101 = DIRECTION ( 'NONE',  ( -4.275831445896958607E-31, -1.000000000000000000, -1.224646799147353207E-16 ) ) ;
#102 = APPROVAL ( #326, 'UNSPECIFIED' ) ;
#103 = PERSON_AND_ORGANIZATION_ROLE ( 'creator' ) ;
#104 = DATE_TIME_ROLE ( 'classification_date' ) ;
#105 =( GEOMETRIC_REPRESENTATION_CONTEXT ( 3 ) GLOBAL_UNCERTAINTY_ASSIGNED_CONTEXT ( ( #76 ) ) GLOBAL_UNIT_ASSIGNED_CONTEXT ( ( #1, #173, #259 ) ) REPRESENTATION_CONTEXT ( 'NONE', 'WORKASPACE' ) );
#106 = PERSON_AND_ORGANIZATION ( #235, #307 ) ;
#107 = DIRECTION ( 'NONE',  ( 0.0000000000000000000, 1.000000000000000000, 0.0000000000000000000 ) ) ;
#108 = SECURITY_CLASSIFICATION_LEVEL ( 'unclassified' ) ;
#109 = PERSON_AND_ORGANIZATION ( #235, #307 ) ;
#110 = ORIENTED_EDGE ( 'NONE', *, *, #220, .F. ) ;
#111 = CC_DESIGN_APPROVAL ( #302, ( #35 ) ) ;
#112 = APPLICATION_CONTEXT ( 'configuration controlled 3d designs of mechanical parts and assemblies' ) ;
#113 = COORDINATED_UNIVERSAL_TIME_OFFSET ( 1, 0, .AHEAD. ) ;
#114 = EDGE_CURVE ( 'NONE', #24, #251, #152, .T. ) ;
#115 = DIRECTION ( 'NONE',  ( 4.275831445896958607E-31, 1.000000000000000000, 1.224646799147353207E-16 ) ) ;
#116 = LINE ( 'NONE', #208, #212 ) ;
#117 = ORIENTED_EDGE ( 'NONE', *, *, #295, .T. ) ;
#118 = COORDINATED_UNIVERSAL_TIME_OFFSET ( 1, 0, .AHEAD. ) ;
#119 = DIRECTION ( 'NONE',  ( 3.491481338843133355E-15, -1.224646799147353207E-16, 1.000000000000000000 ) ) ;
#120 = ORIENTED_EDGE ( 'NONE', *, *, #242, .F. ) ;
#121 = CARTESIAN_POINT ( 'NONE',  ( 2.444036937190193349E-14, 0.4499999999999962919, 7.000000000000000000 ) ) ;
#122 = DIRECTION ( 'NONE',  ( -4.279844320860559053E-31, -1.000000000000000000, -1.204669080539459204E-16 ) ) ;
#123 = AXIS2_PLACEMENT_3D ( 'NONE', #248, #12, #115 ) ;
#124 = CALENDAR_DATE ( 2021, 3, 9 ) ;
#125 = FACE_OUTER_BOUND ( 'NONE', #292, .T. ) ;
#126 = APPLICATION_PROTOCOL_DEFINITION ( 'international standard', 'config_control_design', 1994, #112 ) ;
#127 = FACE_OUTER_BOUND ( 'NONE', #256, .T. ) ;
#128 = VERTEX_POINT ( 'NONE', #121 ) ;
#129 = CONICAL_SURFACE ( 'NONE', #217, 0.3499999999999999778, 0.7853981633974512766 ) ;
#130 = CC_DESIGN_DATE_AND_TIME_ASSIGNMENT ( #77, #104, ( #237 ) ) ;
#131 = CARTESIAN_POINT ( 'NONE',  ( 1.274731986059317829E-14, -0.4499999999999980682, 7.000000000000000000 ) ) ;
#132 = PERSON_AND_ORGANIZATION_ROLE ( 'classification_officer' ) ;
#133 = PRODUCT ( '254', '254', '', ( #203 ) ) ;
#134 = ADVANCED_FACE ( 'NONE', ( #125 ), #321, .T. ) ;
#135 = CLOSED_SHELL ( 'NONE', ( #260, #134, #91, #59, #233, #206 ) ) ;
#136 = CONICAL_SURFACE ( 'NONE', #11, 0.3499999999999999778, 0.7853981633974512766 ) ;
#137 = DIRECTION ( 'NONE',  ( 1.000000000000000000, 0.0000000000000000000, 0.0000000000000000000 ) ) ;
#138 = LOCAL_TIME ( 9, 21, 33.00000000000000000, #161 ) ;
#139 = DIRECTION ( 'NONE',  ( 4.275831445896958607E-31, 1.000000000000000000, 1.224646799147352961E-16 ) ) ;
#140 = CARTESIAN_POINT ( 'NONE',  ( 1.047444401652940007E-13, -3.673940397442059178E-15, 30.00000000000000000 ) ) ;
#141 = DIRECTION ( 'NONE',  ( 3.491481338843133355E-15, -1.224646799147353207E-16, 1.000000000000000000 ) ) ;
#142 = ADVANCED_FACE ( 'NONE', ( #127 ), #154, .T. ) ;
#143 = DIRECTION ( 'NONE',  ( -3.491481338843133355E-15, 1.224646799147353207E-16, -1.000000000000000000 ) ) ;
#144 = CLOSED_SHELL ( 'NONE', ( #142, #276, #3, #174, #25 ) ) ;
#145 = CIRCLE ( 'NONE', #298, 0.4499999999999971800 ) ;
#146 = CARTESIAN_POINT ( 'NONE',  ( 1.046188519703177437E-13, -0.3500000000000036970, 30.00000000000000000 ) ) ;
#147 = EDGE_LOOP ( 'NONE', ( #204, #274 ) ) ;
#148 = CARTESIAN_POINT ( 'NONE',  ( 1.047444401652940007E-13, 0.3499999999999963141, 30.00000000000000000 ) ) ;
#149 = PERSON_AND_ORGANIZATION ( #235, #307 ) ;
#150 = ORIENTED_EDGE ( 'NONE', *, *, #73, .T. ) ;
#151 = EDGE_CURVE ( 'NONE', #23, #300, #277, .T. ) ;
#152 = LINE ( 'NONE', #325, #228 ) ;
#153 = LINE ( 'NONE', #332, #166 ) ;
#154 = CYLINDRICAL_SURFACE ( 'NONE', #28, 0.4499999999999967359 ) ;
#155 = DIRECTION ( 'NONE',  ( -2.382254525458708792E-15, -0.7071067811865495711, -0.7071067811865455743 ) ) ;
#156 = CALENDAR_DATE ( 2021, 3, 9 ) ;
#157 = EDGE_CURVE ( 'NONE', #14, #251, #56, .T. ) ;
#158 = VECTOR ( 'NONE', #285, 1000.000000000000000 ) ;
#159 = CARTESIAN_POINT ( 'NONE',  ( 5.510910596163052578E-17, -0.4499999999999985678, -5.510910596163091404E-17 ) ) ;
#160 = VERTEX_POINT ( 'NONE', #131 ) ;
#161 = COORDINATED_UNIVERSAL_TIME_OFFSET ( 1, 0, .AHEAD. ) ;
#162 = EDGE_CURVE ( 'NONE', #66, #23, #79, .T. ) ;
#163 = DIRECTION ( 'NONE',  ( 0.0000000000000000000, 1.000000000000000000, 0.0000000000000000000 ) ) ;
#164 = ORIENTED_EDGE ( 'NONE', *, *, #73, .F. ) ;
#165 = CIRCLE ( 'NONE', #222, 0.3499999999999999778 ) ;
#166 = VECTOR ( 'NONE', #213, 1000.000000000000114 ) ;
#167 = ORIENTED_EDGE ( 'NONE', *, *, #312, .T. ) ;
#168 = ADVANCED_BREP_SHAPE_REPRESENTATION ( '254', ( #47, #278, #244 ), #105 ) ;
#169 = DIRECTION ( 'NONE',  ( -3.491481338843133355E-15, 1.224646799147353207E-16, -1.000000000000000000 ) ) ;
#170 = EDGE_LOOP ( 'NONE', ( #195, #187, #337, #313 ) ) ;
#171 = LINE ( 'NONE', #296, #97 ) ;
#172 = CARTESIAN_POINT ( 'NONE',  ( 0.0000000000000000000, 0.0000000000000000000, 0.0000000000000000000 ) ) ;
#173 =( NAMED_UNIT ( * ) PLANE_ANGLE_UNIT ( ) SI_UNIT ( $, .RADIAN. ) );
#174 = ADVANCED_FACE ( 'NONE', ( #7 ), #175, .T. ) ;
#175 = CYLINDRICAL_SURFACE ( 'NONE', #202, 0.4499999999999967359 ) ;
#176 = DIRECTION ( 'NONE',  ( 0.0000000000000000000, 1.000000000000000000, 0.0000000000000000000 ) ) ;
#177 = CC_DESIGN_SECURITY_CLASSIFICATION ( #237, ( #35 ) ) ;
#178 = APPROVAL_DATE_TIME ( #287, #37 ) ;
#179 = DIRECTION ( 'NONE',  ( 4.275831445896958607E-31, 1.000000000000000000, 1.224646799147352961E-16 ) ) ;
#180 = PLANE ( 'NONE',  #194 ) ;
#181 = EDGE_CURVE ( 'NONE', #128, #160, #87, .T. ) ;
#182 = ORIENTED_EDGE ( 'NONE', *, *, #151, .F. ) ;
#183 = DIRECTION ( 'NONE',  ( -3.491481338843133355E-15, 1.224646799147353207E-16, -1.000000000000000000 ) ) ;
#184 = DATE_AND_TIME ( #156, #93 ) ;
#185 = DIRECTION ( 'NONE',  ( 4.275831445896958607E-31, 1.000000000000000000, 1.224646799147353207E-16 ) ) ;
#186 = LOCAL_TIME ( 9, 21, 33.00000000000000000, #57 ) ;
#187 = ORIENTED_EDGE ( 'NONE', *, *, #242, .T. ) ;
#188 = EDGE_CURVE ( 'NONE', #30, #190, #165, .T. ) ;
#189 = CARTESIAN_POINT ( 'NONE',  ( 0.0000000000000000000, 0.0000000000000000000, 0.0000000000000000000 ) ) ;
#190 = VERTEX_POINT ( 'NONE', #146 ) ;
#191 = PERSON_AND_ORGANIZATION ( #235, #307 ) ;
#192 = CARTESIAN_POINT ( 'NONE',  ( 1.047444401652940007E-13, -3.673940397442059178E-15, 30.00000000000000000 ) ) ;
#193 = APPLICATION_PROTOCOL_DEFINITION ( 'international standard', 'config_control_design', 1994, #96 ) ;
#194 = AXIS2_PLACEMENT_3D ( 'NONE', #294, #224, #101 ) ;
#195 = ORIENTED_EDGE ( 'NONE', *, *, #227, .F. ) ;
#196 = CONICAL_SURFACE ( 'NONE', #18, 0.4499999999999963474, 1.029744258676649649 ) ;
#197 = CC_DESIGN_PERSON_AND_ORGANIZATION_ASSIGNMENT ( #63, #132, ( #237 ) ) ;
#198 = APPROVAL_DATE_TIME ( #27, #302 ) ;
#199 = CARTESIAN_POINT ( 'NONE',  ( 2.444036937190193349E-14, 3.374459510989145406E-33, 7.000000000000000000 ) ) ;
#200 = EDGE_CURVE ( 'NONE', #128, #251, #246, .T. ) ;
#201 = ORIENTED_EDGE ( 'NONE', *, *, #162, .T. ) ;
#202 = AXIS2_PLACEMENT_3D ( 'NONE', #172, #29, #139 ) ;
#203 = MECHANICAL_CONTEXT ( 'NONE', #96, 'mechanical' ) ;
#204 = ORIENTED_EDGE ( 'NONE', *, *, #188, .F. ) ;
#205 = AXIS2_PLACEMENT_3D ( 'NONE', #15, #43, #240 ) ;
#206 = ADVANCED_FACE ( 'NONE', ( #88 ), #272, .F. ) ;
#207 = APPROVAL_STATUS ( 'not_yet_approved' ) ;
#208 = CARTESIAN_POINT ( 'NONE',  ( 1.924124150653625374E-31, 0.4499999999999985678, 5.510910596163071683E-17 ) ) ;
#209 = DIRECTION ( 'NONE',  ( 1.903218546456022717E-15, 0.8571673007021097801, 0.5150380749100585964 ) ) ;
#210 = EDGE_CURVE ( 'NONE', #251, #14, #334, .T. ) ;
#211 = DIRECTION ( 'NONE',  ( -3.491481338843133355E-15, 1.224646799147353207E-16, -1.000000000000000000 ) ) ;
#212 = VECTOR ( 'NONE', #183, 1000.000000000000000 ) ;
#213 = DIRECTION ( 'NONE',  ( -2.468850131082257455E-15, 0.7071067811865497932, -0.7071067811865453523 ) ) ;
#214 = ORIENTED_EDGE ( 'NONE', *, *, #227, .T. ) ;
#215 = CARTESIAN_POINT ( 'NONE',  ( 6.447293980761718689E-14, -0.4500000000000036748, 29.89999999999999858 ) ) ;
#216 = ORIENTED_EDGE ( 'NONE', *, *, #181, .F. ) ;
#217 = AXIS2_PLACEMENT_3D ( 'NONE', #192, #99, #107 ) ;
#218 = FACE_OUTER_BOUND ( 'NONE', #71, .T. ) ;
#219 = CARTESIAN_POINT ( 'NONE',  ( 9.440521373612094261E-16, -0.4499999999999964029, 0.2703872785624027997 ) ) ;
#220 = EDGE_CURVE ( 'NONE', #30, #64, #153, .T. ) ;
#221 = APPROVAL_STATUS ( 'not_yet_approved' ) ;
#222 = AXIS2_PLACEMENT_3D ( 'NONE', #9, #226, #32 ) ;
#223 = PERSON_AND_ORGANIZATION ( #235, #307 ) ;
#224 = DIRECTION ( 'NONE',  ( 3.491481338843133355E-15, -1.224646799147353207E-16, 1.000000000000000000 ) ) ;
#225 = CARTESIAN_POINT ( 'NONE',  ( 2.444036937190193349E-14, -8.572527594031473190E-16, 7.000000000000000000 ) ) ;
#226 = DIRECTION ( 'NONE',  ( -3.491481338843133355E-15, 1.224646799147353207E-16, -1.000000000000000000 ) ) ;
#227 = EDGE_CURVE ( 'NONE', #160, #14, #83, .T. ) ;
#228 = VECTOR ( 'NONE', #209, 999.9999999999998863 ) ;
#229 = PLANE ( 'NONE',  #19 ) ;
#230 = ORIENTED_EDGE ( 'NONE', *, *, #306, .T. ) ;
#231 = ORIENTED_EDGE ( 'NONE', *, *, #114, .T. ) ;
#232 = VECTOR ( 'NONE', #335, 1000.000000000000000 ) ;
#233 = ADVANCED_FACE ( 'NONE', ( #33 ), #136, .T. ) ;
#234 = APPROVAL_DATE_TIME ( #184, #102 ) ;
#235 = PERSON ( 'UNSPECIFIED', 'UNSPECIFIED', 'UNSPECIFIED', ('UNSPECIFIED'), ('UNSPECIFIED'), ('UNSPECIFIED') ) ;
#236 = ORIENTED_EDGE ( 'NONE', *, *, #200, .F. ) ;
#237 = SECURITY_CLASSIFICATION ( '', '', #108 ) ;
#238 = COORDINATED_UNIVERSAL_TIME_OFFSET ( 1, 0, .AHEAD. ) ;
#239 = CALENDAR_DATE ( 2021, 3, 9 ) ;
#240 = DIRECTION ( 'NONE',  ( 0.0000000000000000000, 1.000000000000000000, 0.0000000000000000000 ) ) ;
#241 = CC_DESIGN_APPROVAL ( #102, ( #78 ) ) ;
#242 = EDGE_CURVE ( 'NONE', #160, #128, #22, .T. ) ;
#243 = EDGE_LOOP ( 'NONE', ( #268, #117, #74, #110 ) ) ;
#244 = AXIS2_PLACEMENT_3D ( 'NONE', #46, #48, #137 ) ;
#245 = ORIENTED_EDGE ( 'NONE', *, *, #253, .F. ) ;
#246 = LINE ( 'NONE', #289, #247 ) ;
#247 = VECTOR ( 'NONE', #169, 1000.000000000000000 ) ;
#248 = CARTESIAN_POINT ( 'NONE',  ( 1.047444401652940007E-13, 2.624579619658195733E-33, 30.00000000000000000 ) ) ;
#249 = DIRECTION ( 'NONE',  ( -3.491481338843133355E-15, 1.224646799147353207E-16, -1.000000000000000000 ) ) ;
#250 = CC_DESIGN_PERSON_AND_ORGANIZATION_ASSIGNMENT ( #106, #290, ( #35 ) ) ;
#251 = VERTEX_POINT ( 'NONE', #317 ) ;
#252 = ORIENTED_EDGE ( 'NONE', *, *, #210, .F. ) ;
#253 = EDGE_CURVE ( 'NONE', #300, #23, #145, .T. ) ;
#254 = VECTOR ( 'NONE', #291, 1000.000000000000000 ) ;
#255 = PERSON_AND_ORGANIZATION_ROLE ( 'creator' ) ;
#256 = EDGE_LOOP ( 'NONE', ( #320, #214, #252, #236 ) ) ;
#257 = ORIENTED_EDGE ( 'NONE', *, *, #17, .T. ) ;
#258 = AXIS2_PLACEMENT_3D ( 'NONE', #225, #310, #304 ) ;
#259 =( NAMED_UNIT ( * ) SI_UNIT ( $, .STERADIAN. ) SOLID_ANGLE_UNIT ( ) );
#260 = ADVANCED_FACE ( 'NONE', ( #261 ), #129, .T. ) ;
#261 = FACE_OUTER_BOUND ( 'NONE', #243, .T. ) ;
#262 = LOCAL_TIME ( 9, 21, 33.00000000000000000, #113 ) ;
#263 = CARTESIAN_POINT ( 'NONE',  ( 1.043952920314096810E-13, -3.661693929450586610E-15, 29.89999999999999858 ) ) ;
#264 = CALENDAR_DATE ( 2021, 3, 9 ) ;
#265 = EDGE_LOOP ( 'NONE', ( #82, #167, #230, #182 ) ) ;
#266 = AXIS2_PLACEMENT_3D ( 'NONE', #263, #54, #328 ) ;
#267 = CIRCLE ( 'NONE', #205, 0.4500000000000000111 ) ;
#268 = ORIENTED_EDGE ( 'NONE', *, *, #188, .T. ) ;
#269 = ORIENTED_EDGE ( 'NONE', *, *, #220, .T. ) ;
#270 = DIRECTION ( 'NONE',  ( 0.0000000000000000000, 1.000000000000000000, 0.0000000000000000000 ) ) ;
#271 = CC_DESIGN_PERSON_AND_ORGANIZATION_ASSIGNMENT ( #311, #103, ( #35 ) ) ;
#272 = PLANE ( 'NONE',  #123 ) ;
#273 = LOCAL_TIME ( 9, 21, 33.00000000000000000, #118 ) ;
#274 = ORIENTED_EDGE ( 'NONE', *, *, #286, .F. ) ;
#275 = PERSON_AND_ORGANIZATION ( #235, #307 ) ;
#276 = ADVANCED_FACE ( 'NONE', ( #31 ), #49, .T. ) ;
#277 = CIRCLE ( 'NONE', #41, 0.4499999999999971800 ) ;
#278 = MANIFOLD_SOLID_BREP ( 'Corps-Déplacer/Copier1[2]', #144 ) ;
#279 = CARTESIAN_POINT ( 'NONE',  ( 9.440521373612096233E-16, -3.311289152216104335E-17, 0.2703872785624028552 ) ) ;
#280 = CARTESIAN_POINT ( 'NONE',  ( 9.440521373612096233E-16, -3.311289152216104335E-17, 0.2703872785624028552 ) ) ;
#281 = DIRECTION ( 'NONE',  ( -3.491481338843133355E-15, 1.224646799147353207E-16, -1.000000000000000000 ) ) ;
#282 = DIRECTION ( 'NONE',  ( 4.275831445896958607E-31, 1.000000000000000000, 1.224646799147353207E-16 ) ) ;
#283 = APPROVAL_PERSON_ORGANIZATION ( #109, #37, #20 ) ;
#284 = ORIENTED_EDGE ( 'NONE', *, *, #286, .T. ) ;
#285 = DIRECTION ( 'NONE',  ( 1.798245827342160317E-15, -0.8571673007021098911, 0.5150380749100582634 ) ) ;
#286 = EDGE_CURVE ( 'NONE', #190, #30, #100, .T. ) ;
#287 = DATE_AND_TIME ( #239, #138 ) ;
#288 = CC_DESIGN_APPROVAL ( #37, ( #237 ) ) ;
#289 = CARTESIAN_POINT ( 'NONE',  ( 1.924124150653617272E-31, 0.4499999999999967359, 5.510910596163048880E-17 ) ) ;
#290 = PERSON_AND_ORGANIZATION_ROLE ( 'design_supplier' ) ;
#291 = DIRECTION ( 'NONE',  ( -3.491481338843133355E-15, 1.224646799147353207E-16, -1.000000000000000000 ) ) ;
#292 = EDGE_LOOP ( 'NONE', ( #257, #201, #245, #330 ) ) ;
#293 = AXIS2_PLACEMENT_3D ( 'NONE', #44, #281, #303 ) ;
#294 = CARTESIAN_POINT ( 'NONE',  ( 2.444036937190193349E-14, 3.374459510989145406E-33, 7.000000000000000000 ) ) ;
#295 = EDGE_CURVE ( 'NONE', #190, #66, #171, .T. ) ;
#296 = CARTESIAN_POINT ( 'NONE',  ( 1.047873028032641491E-13, -0.3500000000000036970, 30.00000000000000000 ) ) ;
#297 = DIRECTION ( 'NONE',  ( -3.491481338843133355E-15, 1.224646799147353207E-16, -1.000000000000000000 ) ) ;
#298 = AXIS2_PLACEMENT_3D ( 'NONE', #51, #297, #163 ) ;
#299 = SHAPE_DEFINITION_REPRESENTATION ( #75, #168 ) ;
#300 = VERTEX_POINT ( 'NONE', #323 ) ;
#301 = DIRECTION ( 'NONE',  ( -4.275831445896958607E-31, -1.000000000000000000, -1.224646799147353207E-16 ) ) ;
#302 = APPROVAL ( #221, 'UNSPECIFIED' ) ;
#303 = DIRECTION ( 'NONE',  ( 4.279844320860559053E-31, 1.000000000000000000, 1.204669080539459204E-16 ) ) ;
#304 = DIRECTION ( 'NONE',  ( 0.0000000000000000000, 1.000000000000000000, 0.0000000000000000000 ) ) ;
#305 = PERSON_AND_ORGANIZATION_ROLE ( 'design_owner' ) ;
#306 = EDGE_CURVE ( 'NONE', #64, #300, #116, .T. ) ;
#307 = ORGANIZATION ( 'UNSPECIFIED', 'UNSPECIFIED', '' ) ;
#308 = AXIS2_PLACEMENT_3D ( 'NONE', #279, #70, #85 ) ;
#309 = DIRECTION ( 'NONE',  ( -3.491481338843133355E-15, 1.224646799147353207E-16, -1.000000000000000000 ) ) ;
#310 = DIRECTION ( 'NONE',  ( -3.491481338843133355E-15, 1.224646799147353207E-16, -1.000000000000000000 ) ) ;
#311 = PERSON_AND_ORGANIZATION ( #235, #307 ) ;
#312 = EDGE_CURVE ( 'NONE', #66, #64, #267, .T. ) ;
#313 = ORIENTED_EDGE ( 'NONE', *, *, #157, .F. ) ;
#314 = AXIS2_PLACEMENT_3D ( 'NONE', #8, #309, #270 ) ;
#315 = DIRECTION ( 'NONE',  ( -3.491481338843133355E-15, 1.224646799147353207E-16, -1.000000000000000000 ) ) ;
#316 = DIRECTION ( 'NONE',  ( 0.0000000000000000000, 1.000000000000000000, 0.0000000000000000000 ) ) ;
#317 = CARTESIAN_POINT ( 'NONE',  ( 9.991612433228403216E-16, 0.4499999999999962919, 0.2703872785624029107 ) ) ;
#318 = CARTESIAN_POINT ( 'NONE',  ( 9.440521373612096233E-16, -3.311289152216104335E-17, 0.2703872785624028552 ) ) ;
#319 = EDGE_LOOP ( 'NONE', ( #4, #150, #58 ) ) ;
#320 = ORIENTED_EDGE ( 'NONE', *, *, #181, .T. ) ;
#321 = CYLINDRICAL_SURFACE ( 'NONE', #322, 0.4499999999999985678 ) ;
#322 = AXIS2_PLACEMENT_3D ( 'NONE', #189, #67, #185 ) ;
#323 = CARTESIAN_POINT ( 'NONE',  ( 2.444036937190193349E-14, 0.4499999999999962919, 7.000000000000000000 ) ) ;
#324 = EDGE_LOOP ( 'NONE', ( #164, #231, #327 ) ) ;
#325 = CARTESIAN_POINT ( 'NONE',  ( 9.991612433228403216E-16, 0.4499999999999962919, 0.2703872785624029107 ) ) ;
#326 = APPROVAL_STATUS ( 'not_yet_approved' ) ;
#327 = ORIENTED_EDGE ( 'NONE', *, *, #210, .T. ) ;
#328 = DIRECTION ( 'NONE',  ( 0.0000000000000000000, 1.000000000000000000, 0.0000000000000000000 ) ) ;
#329 = DIRECTION ( 'NONE',  ( -3.491481338843133355E-15, 1.224646799147353207E-16, -1.000000000000000000 ) ) ;
#330 = ORIENTED_EDGE ( 'NONE', *, *, #306, .F. ) ;
#331 = CC_DESIGN_DATE_AND_TIME_ASSIGNMENT ( #60, #2, ( #78 ) ) ;
#332 = CARTESIAN_POINT ( 'NONE',  ( 1.047444401652940007E-13, 0.3499999999999963141, 30.00000000000000000 ) ) ;
#333 = CIRCLE ( 'NONE', #266, 0.4500000000000000111 ) ;
#334 = CIRCLE ( 'NONE', #293, 0.4499999999999963474 ) ;
#335 = DIRECTION ( 'NONE',  ( -3.491481338843133355E-15, 1.224646799147353207E-16, -1.000000000000000000 ) ) ;
#336 = APPROVAL_PERSON_ORGANIZATION ( #191, #102, #94 ) ;
#337 = ORIENTED_EDGE ( 'NONE', *, *, #200, .T. ) ;
ENDSEC;
END-ISO-10303-21;
