ISO-10303-21;
HEADER;
FILE_DESCRIPTION (( 'STEP AP203' ),
    '1' );
FILE_NAME ('2536.step',
    '2021-12-06T12:58:35',
    ( '' ),
    ( '' ),
    'SwSTEP 2.0',
    'SolidWorks 2019',
    '' );
FILE_SCHEMA (( 'CONFIG_CONTROL_DESIGN' ));
ENDSEC;

DATA;
#1 = APPLICATION_PROTOCOL_DEFINITION ( 'international standard', 'config_control_design', 1994, #17 ) ;
#2 = APPROVAL_PERSON_ORGANIZATION ( #136, #80, #151 ) ;
#3 = CC_DESIGN_APPROVAL ( #83, ( #61 ) ) ;
#4 = EDGE_CURVE ( 'NONE', #60, #60, #145, .T. ) ;
#5 = CALENDAR_DATE ( 2021, 6, 12 ) ;
#6 = DIRECTION ( 'NONE',  ( -3.491481338843133355E-15, 1.122592899218406757E-16, -1.000000000000000000 ) ) ;
#7 = DIRECTION ( 'NONE',  ( -3.491481338843133355E-15, 1.122592899218406757E-16, -1.000000000000000000 ) ) ;
#8 = DIRECTION ( 'NONE',  ( 3.919512158738877409E-31, 1.000000000000000000, 1.122592899218406757E-16 ) ) ;
#9 = AXIS2_PLACEMENT_3D ( 'NONE', #139, #7, #34 ) ;
#10 = DIRECTION ( 'NONE',  ( -3.919512158738877409E-31, -1.000000000000000000, -1.122592899218406757E-16 ) ) ;
#11 = DATE_AND_TIME ( #89, #67 ) ;
#12 = CC_DESIGN_PERSON_AND_ORGANIZATION_ASSIGNMENT ( #49, #131, ( #112 ) ) ;
#13 = APPROVAL_PERSON_ORGANIZATION ( #22, #121, #55 ) ;
#14 = COORDINATED_UNIVERSAL_TIME_OFFSET ( 1, 0, .AHEAD. ) ;
#15 = CC_DESIGN_PERSON_AND_ORGANIZATION_ASSIGNMENT ( #24, #160, ( #78 ) ) ;
#16 = EDGE_CURVE ( 'NONE', #154, #154, #33, .T. ) ;
#17 = APPLICATION_CONTEXT ( 'configuration controlled 3d designs of mechanical parts and assemblies' ) ;
#18 = FACE_OUTER_BOUND ( 'NONE', #69, .T. ) ;
#19 = AXIS2_PLACEMENT_3D ( 'NONE', #76, #115, #77 ) ;
#20 = EDGE_LOOP ( 'NONE', ( #133 ) ) ;
#21 = CARTESIAN_POINT ( 'NONE',  ( 4.189777606611759237E-15, 6.500000000000000000, 1.199999999999999956 ) ) ;
#22 = PERSON_AND_ORGANIZATION ( #162, #50 ) ;
#23 = UNCERTAINTY_MEASURE_WITH_UNIT (LENGTH_MEASURE( 1.000000000000000082E-05 ), #167, 'distance_accuracy_value', 'NONE');
#24 = PERSON_AND_ORGANIZATION ( #162, #50 ) ;
#25 = DATE_AND_TIME ( #5, #149 ) ;
#26 = PLANE ( 'NONE',  #159 ) ;
#27 = AXIS2_PLACEMENT_3D ( 'NONE', #101, #113, #111 ) ;
#28 =( NAMED_UNIT ( * ) PLANE_ANGLE_UNIT ( ) SI_UNIT ( $, .RADIAN. ) );
#29 = DIRECTION ( 'NONE',  ( -3.491481338843133355E-15, 1.122592899218406757E-16, -1.000000000000000000 ) ) ;
#30 = COORDINATED_UNIVERSAL_TIME_OFFSET ( 1, 0, .AHEAD. ) ;
#31 = CARTESIAN_POINT ( 'NONE',  ( -3.421138828918010427E-46, 6.500000000000000000, 0.0000000000000000000 ) ) ;
#32 = CC_DESIGN_DATE_AND_TIME_ASSIGNMENT ( #25, #148, ( #61 ) ) ;
#33 = CIRCLE ( 'NONE', #106, 25.00000000000000000 ) ;
#34 = DIRECTION ( 'NONE',  ( 3.919512158738876971E-31, 1.000000000000000000, 1.122592899218407004E-16 ) ) ;
#35 = ORIENTED_EDGE ( 'NONE', *, *, #16, .F. ) ;
#36 = APPROVAL_DATE_TIME ( #59, #80 ) ;
#37 = CC_DESIGN_APPROVAL ( #80, ( #78 ) ) ;
#38 = APPROVAL_STATUS ( 'not_yet_approved' ) ;
#39 = COORDINATED_UNIVERSAL_TIME_OFFSET ( 1, 0, .AHEAD. ) ;
#40 = EDGE_CURVE ( 'NONE', #141, #141, #132, .T. ) ;
#41 = EDGE_LOOP ( 'NONE', ( #79 ) ) ;
#42 = DIRECTION ( 'NONE',  ( 3.919512158738877409E-31, 1.000000000000000000, 1.122592899218406757E-16 ) ) ;
#43 = CC_DESIGN_PERSON_AND_ORGANIZATION_ASSIGNMENT ( #120, #93, ( #74 ) ) ;
#44 = PERSON_AND_ORGANIZATION_ROLE ( 'creator' ) ;
#45 = ADVANCED_BREP_SHAPE_REPRESENTATION ( '2536', ( #124, #19 ), #125 ) ;
#46 = DESIGN_CONTEXT ( 'detailed design', #95, 'design' ) ;
#47 = FACE_BOUND ( 'NONE', #168, .T. ) ;
#48 = FACE_OUTER_BOUND ( 'NONE', #130, .T. ) ;
#49 = PERSON_AND_ORGANIZATION ( #162, #50 ) ;
#50 = ORGANIZATION ( 'UNSPECIFIED', 'UNSPECIFIED', '' ) ;
#51 = ORIENTED_EDGE ( 'NONE', *, *, #4, .T. ) ;
#52 = EDGE_LOOP ( 'NONE', ( #104 ) ) ;
#53 = APPROVAL_STATUS ( 'not_yet_approved' ) ;
#54 = CIRCLE ( 'NONE', #137, 6.500000000000000000 ) ;
#55 = APPROVAL_ROLE ( '' ) ;
#56 = CC_DESIGN_PERSON_AND_ORGANIZATION_ASSIGNMENT ( #85, #81, ( #74 ) ) ;
#57 = DATE_AND_TIME ( #90, #117 ) ;
#58 = CC_DESIGN_SECURITY_CLASSIFICATION ( #78, ( #74 ) ) ;
#59 = DATE_AND_TIME ( #138, #109 ) ;
#60 = VERTEX_POINT ( 'NONE', #110 ) ;
#61 = PRODUCT_DEFINITION ( 'UNKNOWN', '', #74, #46 ) ;
#62 =( NAMED_UNIT ( * ) SI_UNIT ( $, .STERADIAN. ) SOLID_ANGLE_UNIT ( ) );
#63 = FACE_OUTER_BOUND ( 'NONE', #20, .T. ) ;
#64 = AXIS2_PLACEMENT_3D ( 'NONE', #155, #142, #8 ) ;
#65 = CARTESIAN_POINT ( 'NONE',  ( -3.625548746833462764E-30, 6.500000000000000000, -1.038398431777026491E-15 ) ) ;
#66 = DIRECTION ( 'NONE',  ( 3.555562974253358565E-31, 1.000000000000000000, 1.000802005371234881E-16 ) ) ;
#67 = LOCAL_TIME ( 13, 58, 35.00000000000000000, #30 ) ;
#68 = APPLICATION_PROTOCOL_DEFINITION ( 'international standard', 'config_control_design', 1994, #95 ) ;
#69 = EDGE_LOOP ( 'NONE', ( #51 ) ) ;
#70 = CARTESIAN_POINT ( 'NONE',  ( 4.189777606611756871E-15, -1.347111479062087271E-16, 1.199999999999999289 ) ) ;
#71 = FACE_OUTER_BOUND ( 'NONE', #116, .T. ) ;
#72 = CARTESIAN_POINT ( 'NONE',  ( 4.189777606611749771E-15, -1.347111479062084805E-16, 1.199999999999997069 ) ) ;
#73 = DIRECTION ( 'NONE',  ( -3.491481338843133355E-15, 1.122592899218406757E-16, -1.000000000000000000 ) ) ;
#74 = PRODUCT_DEFINITION_FORMATION_WITH_SPECIFIED_SOURCE ( 'ANY', '', #112, .NOT_KNOWN. ) ;
#75 = APPROVAL_DATE_TIME ( #11, #83 ) ;
#76 = CARTESIAN_POINT ( 'NONE',  ( 0.0000000000000000000, 0.0000000000000000000, 0.0000000000000000000 ) ) ;
#77 = DIRECTION ( 'NONE',  ( 1.000000000000000000, 0.0000000000000000000, 0.0000000000000000000 ) ) ;
#78 = SECURITY_CLASSIFICATION ( '', '', #150 ) ;
#79 = ORIENTED_EDGE ( 'NONE', *, *, #40, .F. ) ;
#80 = APPROVAL ( #108, 'UNSPECIFIED' ) ;
#81 = PERSON_AND_ORGANIZATION_ROLE ( 'creator' ) ;
#82 = COORDINATED_UNIVERSAL_TIME_OFFSET ( 1, 0, .AHEAD. ) ;
#83 = APPROVAL ( #53, 'UNSPECIFIED' ) ;
#84 = ORIENTED_EDGE ( 'NONE', *, *, #16, .T. ) ;
#85 = PERSON_AND_ORGANIZATION ( #162, #50 ) ;
#86 = AXIS2_PLACEMENT_3D ( 'NONE', #88, #6, #143 ) ;
#87 = EDGE_LOOP ( 'NONE', ( #103 ) ) ;
#88 = CARTESIAN_POINT ( 'NONE',  ( 0.0000000000000000000, 0.0000000000000000000, 0.0000000000000000000 ) ) ;
#89 = CALENDAR_DATE ( 2021, 6, 12 ) ;
#90 = CALENDAR_DATE ( 2021, 6, 12 ) ;
#91 = APPROVAL_PERSON_ORGANIZATION ( #118, #83, #153 ) ;
#92 = CC_DESIGN_PERSON_AND_ORGANIZATION_ASSIGNMENT ( #163, #44, ( #61 ) ) ;
#93 = PERSON_AND_ORGANIZATION_ROLE ( 'design_supplier' ) ;
#94 = DATE_TIME_ROLE ( 'classification_date' ) ;
#95 = APPLICATION_CONTEXT ( 'configuration controlled 3d designs of mechanical parts and assemblies' ) ;
#96 = CARTESIAN_POINT ( 'NONE',  ( 4.189777606611759237E-15, 25.00000000000000000, 1.199999999999999956 ) ) ;
#97 = ORIENTED_EDGE ( 'NONE', *, *, #119, .T. ) ;
#98 = AXIS2_PLACEMENT_3D ( 'NONE', #144, #166, #10 ) ;
#99 = PLANE ( 'NONE',  #98 ) ;
#100 = CYLINDRICAL_SURFACE ( 'NONE', #86, 25.00000000000000000 ) ;
#101 = CARTESIAN_POINT ( 'NONE',  ( 0.0000000000000000000, 0.0000000000000000000, 0.0000000000000000000 ) ) ;
#102 = ADVANCED_FACE ( 'NONE', ( #127, #63 ), #161, .F. ) ;
#103 = ORIENTED_EDGE ( 'NONE', *, *, #40, .T. ) ;
#104 = ORIENTED_EDGE ( 'NONE', *, *, #4, .F. ) ;
#105 = PRODUCT_RELATED_PRODUCT_CATEGORY ( 'detail', '', ( #112 ) ) ;
#106 = AXIS2_PLACEMENT_3D ( 'NONE', #72, #29, #129 ) ;
#107 = DATE_AND_TIME ( #158, #169 ) ;
#108 = APPROVAL_STATUS ( 'not_yet_approved' ) ;
#109 = LOCAL_TIME ( 13, 58, 35.00000000000000000, #157 ) ;
#110 = CARTESIAN_POINT ( 'NONE',  ( -1.368455531567204171E-45, 25.00000000000000000, 0.0000000000000000000 ) ) ;
#111 = DIRECTION ( 'NONE',  ( 3.919512158738877409E-31, 1.000000000000000000, 1.122592899218406757E-16 ) ) ;
#112 = PRODUCT ( '2536', '2536', '', ( #134 ) ) ;
#113 = DIRECTION ( 'NONE',  ( -3.491481338843133355E-15, 1.122592899218406757E-16, -1.000000000000000000 ) ) ;
#114 = VERTEX_POINT ( 'NONE', #21 ) ;
#115 = DIRECTION ( 'NONE',  ( 0.0000000000000000000, 0.0000000000000000000, 1.000000000000000000 ) ) ;
#116 = EDGE_LOOP ( 'NONE', ( #35 ) ) ;
#117 = LOCAL_TIME ( 13, 58, 35.00000000000000000, #39 ) ;
#118 = PERSON_AND_ORGANIZATION ( #162, #50 ) ;
#119 = EDGE_CURVE ( 'NONE', #114, #114, #54, .T. ) ;
#120 = PERSON_AND_ORGANIZATION ( #162, #50 ) ;
#121 = APPROVAL ( #38, 'UNSPECIFIED' ) ;
#122 = SHAPE_DEFINITION_REPRESENTATION ( #146, #45 ) ;
#123 = ADVANCED_FACE ( 'NONE', ( #18, #165 ), #26, .T. ) ;
#124 = MANIFOLD_SOLID_BREP ( 'Corps-Déplacer/Copier1', #140 ) ;
#125 =( GEOMETRIC_REPRESENTATION_CONTEXT ( 3 ) GLOBAL_UNCERTAINTY_ASSIGNED_CONTEXT ( ( #23 ) ) GLOBAL_UNIT_ASSIGNED_CONTEXT ( ( #167, #28, #62 ) ) REPRESENTATION_CONTEXT ( 'NONE', 'WORKASPACE' ) );
#126 = DIRECTION ( 'NONE',  ( -3.491481338843133355E-15, 1.122592899218406757E-16, -1.000000000000000000 ) ) ;
#127 = FACE_OUTER_BOUND ( 'NONE', #87, .T. ) ;
#128 = CC_DESIGN_DATE_AND_TIME_ASSIGNMENT ( #57, #94, ( #78 ) ) ;
#129 = DIRECTION ( 'NONE',  ( 4.005934284325450574E-31, 1.000000000000000000, 1.127570259384924611E-16 ) ) ;
#130 = EDGE_LOOP ( 'NONE', ( #84 ) ) ;
#131 = PERSON_AND_ORGANIZATION_ROLE ( 'design_owner' ) ;
#132 = CIRCLE ( 'NONE', #64, 6.500000000000000000 ) ;
#133 = ORIENTED_EDGE ( 'NONE', *, *, #119, .F. ) ;
#134 = MECHANICAL_CONTEXT ( 'NONE', #17, 'mechanical' ) ;
#135 = APPROVAL_DATE_TIME ( #107, #121 ) ;
#136 = PERSON_AND_ORGANIZATION ( #162, #50 ) ;
#137 = AXIS2_PLACEMENT_3D ( 'NONE', #70, #126, #66 ) ;
#138 = CALENDAR_DATE ( 2021, 6, 12 ) ;
#139 = CARTESIAN_POINT ( 'NONE',  ( -9.798780396847194311E-30, 3.150537043438970311E-31, -2.806482248046017362E-15 ) ) ;
#140 = CLOSED_SHELL ( 'NONE', ( #123, #156, #147, #102 ) ) ;
#141 = VERTEX_POINT ( 'NONE', #31 ) ;
#142 = DIRECTION ( 'NONE',  ( -3.491481338843133355E-15, 1.122592899218406757E-16, -1.000000000000000000 ) ) ;
#143 = DIRECTION ( 'NONE',  ( 3.919512158738876971E-31, 1.000000000000000000, 1.122592899218407004E-16 ) ) ;
#144 = CARTESIAN_POINT ( 'NONE',  ( 4.189777606611756082E-15, 6.500000000000000000, 1.199999999999998845 ) ) ;
#145 = CIRCLE ( 'NONE', #9, 25.00000000000000000 ) ;
#146 = PRODUCT_DEFINITION_SHAPE ( 'NONE', 'NONE',  #61 ) ;
#147 = ADVANCED_FACE ( 'NONE', ( #47, #71 ), #99, .T. ) ;
#148 = DATE_TIME_ROLE ( 'creation_date' ) ;
#149 = LOCAL_TIME ( 13, 58, 35.00000000000000000, #14 ) ;
#150 = SECURITY_CLASSIFICATION_LEVEL ( 'unclassified' ) ;
#151 = APPROVAL_ROLE ( '' ) ;
#152 = FACE_OUTER_BOUND ( 'NONE', #52, .T. ) ;
#153 = APPROVAL_ROLE ( '' ) ;
#154 = VERTEX_POINT ( 'NONE', #96 ) ;
#155 = CARTESIAN_POINT ( 'NONE',  ( -2.547682903180270535E-30, 8.191396312941321362E-32, -7.296853844919643799E-16 ) ) ;
#156 = ADVANCED_FACE ( 'NONE', ( #48, #152 ), #100, .T. ) ;
#157 = COORDINATED_UNIVERSAL_TIME_OFFSET ( 1, 0, .AHEAD. ) ;
#158 = CALENDAR_DATE ( 2021, 6, 12 ) ;
#159 = AXIS2_PLACEMENT_3D ( 'NONE', #65, #73, #42 ) ;
#160 = PERSON_AND_ORGANIZATION_ROLE ( 'classification_officer' ) ;
#161 = CYLINDRICAL_SURFACE ( 'NONE', #27, 6.500000000000000000 ) ;
#162 = PERSON ( 'UNSPECIFIED', 'UNSPECIFIED', 'UNSPECIFIED', ('UNSPECIFIED'), ('UNSPECIFIED'), ('UNSPECIFIED') ) ;
#163 = PERSON_AND_ORGANIZATION ( #162, #50 ) ;
#164 = CC_DESIGN_APPROVAL ( #121, ( #74 ) ) ;
#165 = FACE_BOUND ( 'NONE', #41, .T. ) ;
#166 = DIRECTION ( 'NONE',  ( 3.491481338843133355E-15, -1.122592899218406757E-16, 1.000000000000000000 ) ) ;
#167 =( LENGTH_UNIT ( ) NAMED_UNIT ( * ) SI_UNIT ( .MILLI., .METRE. ) );
#168 = EDGE_LOOP ( 'NONE', ( #97 ) ) ;
#169 = LOCAL_TIME ( 13, 58, 35.00000000000000000, #82 ) ;
ENDSEC;
END-ISO-10303-21;
