ISO-10303-21;
HEADER;
FILE_DESCRIPTION (( 'STEP AP203' ),
    '1' );
FILE_NAME ('253.step',
    '2021-09-03T07:21:33',
    ( '' ),
    ( '' ),
    'SwSTEP 2.0',
    'SolidWorks 2019',
    '' );
FILE_SCHEMA (( 'CONFIG_CONTROL_DESIGN' ));
ENDSEC;

DATA;
#1 = COORDINATED_UNIVERSAL_TIME_OFFSET ( 1, 0, .AHEAD. ) ;
#2 = APPROVAL_DATE_TIME ( #310, #23 ) ;
#3 = ORIENTED_EDGE ( 'NONE', *, *, #268, .F. ) ;
#4 = DATE_TIME_ROLE ( 'creation_date' ) ;
#5 = ORIENTED_EDGE ( 'NONE', *, *, #170, .T. ) ;
#6 = AXIS2_PLACEMENT_3D ( 'NONE', #163, #331, #211 ) ;
#7 = DIRECTION ( 'NONE',  ( -3.491481338843133355E-15, 1.224646799147353207E-16, -1.000000000000000000 ) ) ;
#8 = DIRECTION ( 'NONE',  ( -4.275831445896958607E-31, -1.000000000000000000, -1.224646799147353207E-16 ) ) ;
#9 = SECURITY_CLASSIFICATION_LEVEL ( 'unclassified' ) ;
#10 = ADVANCED_FACE ( 'NONE', ( #242 ), #204, .T. ) ;
#11 = LINE ( 'NONE', #222, #145 ) ;
#12 = AXIS2_PLACEMENT_3D ( 'NONE', #278, #80, #8 ) ;
#13 = DIRECTION ( 'NONE',  ( 0.0000000000000000000, 1.000000000000000000, 0.0000000000000000000 ) ) ;
#14 = EDGE_CURVE ( 'NONE', #138, #223, #132, .T. ) ;
#15 = PRODUCT ( '253', '253', '', ( #149 ) ) ;
#16 = ORIENTED_EDGE ( 'NONE', *, *, #52, .T. ) ;
#17 = PRODUCT_DEFINITION_FORMATION_WITH_SPECIFIED_SOURCE ( 'ANY', '', #15, .NOT_KNOWN. ) ;
#18 = FACE_OUTER_BOUND ( 'NONE', #34, .T. ) ;
#19 = ORIENTED_EDGE ( 'NONE', *, *, #199, .T. ) ;
#20 = CC_DESIGN_PERSON_AND_ORGANIZATION_ASSIGNMENT ( #264, #216, ( #17 ) ) ;
#21 = AXIS2_PLACEMENT_3D ( 'NONE', #294, #269, #326 ) ;
#22 = DIRECTION ( 'NONE',  ( -3.491481338843133355E-15, 1.224646799147353207E-16, -1.000000000000000000 ) ) ;
#23 = APPROVAL ( #303, 'UNSPECIFIED' ) ;
#24 = APPROVAL_ROLE ( '' ) ;
#25 = DIRECTION ( 'NONE',  ( -3.491481338843133355E-15, 1.224646799147353207E-16, -1.000000000000000000 ) ) ;
#26 = CLOSED_SHELL ( 'NONE', ( #137, #198, #250, #117, #334, #148 ) ) ;
#27 = AXIS2_PLACEMENT_3D ( 'NONE', #67, #329, #78 ) ;
#28 = ORIENTED_EDGE ( 'NONE', *, *, #36, .F. ) ;
#29 = ORIENTED_EDGE ( 'NONE', *, *, #122, .T. ) ;
#30 = ADVANCED_FACE ( 'NONE', ( #262 ), #244, .T. ) ;
#31 = ORIENTED_EDGE ( 'NONE', *, *, #102, .F. ) ;
#32 = VERTEX_POINT ( 'NONE', #76 ) ;
#33 =( NAMED_UNIT ( * ) SI_UNIT ( $, .STERADIAN. ) SOLID_ANGLE_UNIT ( ) );
#34 = EDGE_LOOP ( 'NONE', ( #46, #195, #31, #106 ) ) ;
#35 = AXIS2_PLACEMENT_3D ( 'NONE', #316, #104, #47 ) ;
#36 = EDGE_CURVE ( 'NONE', #246, #32, #215, .T. ) ;
#37 = CARTESIAN_POINT ( 'NONE',  ( 2.444036937190193033E-14, 3.186989538156372152E-33, 6.999999999999999112 ) ) ;
#38 = PLANE ( 'NONE',  #12 ) ;
#39 = COORDINATED_UNIVERSAL_TIME_OFFSET ( 1, 0, .AHEAD. ) ;
#40 = DIRECTION ( 'NONE',  ( -3.491481338843133355E-15, 1.224646799147353207E-16, -1.000000000000000000 ) ) ;
#41 = ORIENTED_EDGE ( 'NONE', *, *, #190, .F. ) ;
#42 = CC_DESIGN_DATE_AND_TIME_ASSIGNMENT ( #256, #142, ( #158 ) ) ;
#43 = CARTESIAN_POINT ( 'NONE',  ( 2.444036937190193033E-14, -8.572527594031472204E-16, 6.999999999999999112 ) ) ;
#44 = DIRECTION ( 'NONE',  ( -4.275831445896958607E-31, -1.000000000000000000, -1.224646799147353207E-16 ) ) ;
#45 = PERSON_AND_ORGANIZATION ( #165, #305 ) ;
#46 = ORIENTED_EDGE ( 'NONE', *, *, #248, .T. ) ;
#47 = DIRECTION ( 'NONE',  ( 0.0000000000000000000, 1.000000000000000000, 0.0000000000000000000 ) ) ;
#48 = LINE ( 'NONE', #293, #255 ) ;
#49 = EDGE_CURVE ( 'NONE', #139, #138, #224, .T. ) ;
#50 = AXIS2_PLACEMENT_3D ( 'NONE', #300, #280, #54 ) ;
#51 = CARTESIAN_POINT ( 'NONE',  ( 0.0000000000000000000, 0.0000000000000000000, 0.0000000000000000000 ) ) ;
#52 = EDGE_CURVE ( 'NONE', #138, #139, #109, .T. ) ;
#53 = ORIENTED_EDGE ( 'NONE', *, *, #14, .F. ) ;
#54 = DIRECTION ( 'NONE',  ( -4.531599869146533744E-31, -1.000000000000000000, -1.275531967630032363E-16 ) ) ;
#55 = DATE_AND_TIME ( #284, #162 ) ;
#56 = CC_DESIGN_SECURITY_CLASSIFICATION ( #158, ( #17 ) ) ;
#57 = LINE ( 'NONE', #169, #235 ) ;
#58 = APPROVAL_ROLE ( '' ) ;
#59 = ORIENTED_EDGE ( 'NONE', *, *, #199, .F. ) ;
#60 = MANIFOLD_SOLID_BREP ( 'Corps-Déplacer/Copier1[2]', #313 ) ;
#61 = VECTOR ( 'NONE', #176, 1000.000000000000000 ) ;
#62 = DIRECTION ( 'NONE',  ( -3.491481338843133355E-15, 1.224646799147353207E-16, -1.000000000000000000 ) ) ;
#63 = EDGE_CURVE ( 'NONE', #236, #138, #330, .T. ) ;
#64 = CARTESIAN_POINT ( 'NONE',  ( 6.446987819061950216E-14, -0.4249999999999925504, 6.999999999999999112 ) ) ;
#65 = CARTESIAN_POINT ( 'NONE',  ( 5.204748896376146545E-17, -0.4249999999999929390, -5.204748896376182290E-17 ) ) ;
#66 = CARTESIAN_POINT ( 'NONE',  ( 1.047444401652940007E-13, -3.673940397442059178E-15, 30.00000000000000000 ) ) ;
#67 = CARTESIAN_POINT ( 'NONE',  ( 0.0000000000000000000, 0.0000000000000000000, 0.0000000000000000000 ) ) ;
#68 = EDGE_LOOP ( 'NONE', ( #241, #59 ) ) ;
#69 = CONICAL_SURFACE ( 'NONE', #277, 0.3249999999999939049, 0.7853981633974352894 ) ;
#70 = DIRECTION ( 'NONE',  ( 4.531599869146533744E-31, 1.000000000000000000, 1.275531967630032363E-16 ) ) ;
#71 = PERSON_AND_ORGANIZATION_ROLE ( 'classification_officer' ) ;
#72 = APPLICATION_CONTEXT ( 'configuration controlled 3d designs of mechanical parts and assemblies' ) ;
#73 = DATE_AND_TIME ( #101, #197 ) ;
#74 = AXIS2_PLACEMENT_3D ( 'NONE', #113, #258, #191 ) ;
#75 = PERSON_AND_ORGANIZATION ( #165, #305 ) ;
#76 = CARTESIAN_POINT ( 'NONE',  ( 8.916047963966863747E-16, -0.4249999999999910516, 0.2553657630867104955 ) ) ;
#77 = VERTEX_POINT ( 'NONE', #254 ) ;
#78 = DIRECTION ( 'NONE',  ( 4.275831445896958607E-31, 1.000000000000000000, 1.224646799147353207E-16 ) ) ;
#79 = VERTEX_POINT ( 'NONE', #83 ) ;
#80 = DIRECTION ( 'NONE',  ( 3.491481338843133355E-15, -1.224646799147353207E-16, 1.000000000000000000 ) ) ;
#81 = CC_DESIGN_PERSON_AND_ORGANIZATION_ASSIGNMENT ( #124, #289, ( #15 ) ) ;
#82 = DIRECTION ( 'NONE',  ( 0.0000000000000000000, 1.000000000000000000, 0.0000000000000000000 ) ) ;
#83 = CARTESIAN_POINT ( 'NONE',  ( 2.444036937190193033E-14, 0.4249999999999908296, 6.999999999999999112 ) ) ;
#84 = CIRCLE ( 'NONE', #6, 0.4249999999999916622 ) ;
#85 = VERTEX_POINT ( 'NONE', #283 ) ;
#86 = PERSON_AND_ORGANIZATION ( #165, #305 ) ;
#87 = EDGE_CURVE ( 'NONE', #139, #79, #57, .T. ) ;
#88 = APPLICATION_CONTEXT ( 'configuration controlled 3d designs of mechanical parts and assemblies' ) ;
#89 = SHAPE_DEFINITION_REPRESENTATION ( #323, #232 ) ;
#90 = VERTEX_POINT ( 'NONE', #194 ) ;
#91 = PERSON_AND_ORGANIZATION ( #165, #305 ) ;
#92 = DIRECTION ( 'NONE',  ( 4.275831445896958607E-31, 1.000000000000000000, 1.224646799147353207E-16 ) ) ;
#93 = EDGE_CURVE ( 'NONE', #32, #85, #180, .T. ) ;
#94 = CARTESIAN_POINT ( 'NONE',  ( 8.916047963966865720E-16, -3.127328643759613453E-17, 0.2553657630867105510 ) ) ;
#95 = CARTESIAN_POINT ( 'NONE',  ( 1.047444401652940007E-13, -3.673940397442059178E-15, 30.00000000000000000 ) ) ;
#96 = CARTESIAN_POINT ( 'NONE',  ( 5.204748896376127440E-17, -0.4249999999999913847, -5.204748896376163185E-17 ) ) ;
#97 = CARTESIAN_POINT ( 'NONE',  ( 6.446987819061931283E-14, -0.4249999999999978795, 29.89999999999999503 ) ) ;
#98 = ADVANCED_FACE ( 'NONE', ( #266 ), #173, .T. ) ;
#99 = ORIENTED_EDGE ( 'NONE', *, *, #102, .T. ) ;
#100 = DIRECTION ( 'NONE',  ( 4.275831445896958607E-31, 1.000000000000000000, 1.224646799147353207E-16 ) ) ;
#101 = CALENDAR_DATE ( 2021, 3, 9 ) ;
#102 = EDGE_CURVE ( 'NONE', #85, #32, #271, .T. ) ;
#103 = ORIENTED_EDGE ( 'NONE', *, *, #274, .T. ) ;
#104 = DIRECTION ( 'NONE',  ( -3.491481338843133355E-15, 1.224646799147353207E-16, -1.000000000000000000 ) ) ;
#105 = CIRCLE ( 'NONE', #273, 0.3249999999999939049 ) ;
#106 = ORIENTED_EDGE ( 'NONE', *, *, #122, .F. ) ;
#107 = APPROVAL ( #182, 'UNSPECIFIED' ) ;
#108 = ORIENTED_EDGE ( 'NONE', *, *, #170, .F. ) ;
#109 = CIRCLE ( 'NONE', #288, 0.4249999999999941602 ) ;
#110 = CC_DESIGN_PERSON_AND_ORGANIZATION_ASSIGNMENT ( #45, #71, ( #158 ) ) ;
#111 = CC_DESIGN_APPROVAL ( #107, ( #17 ) ) ;
#112 = CARTESIAN_POINT ( 'NONE',  ( 1.043952920314096684E-13, 0.4249999999999904965, 29.89999999999999503 ) ) ;
#113 = CARTESIAN_POINT ( 'NONE',  ( 2.444036937190193033E-14, -8.572527594031472204E-16, 6.999999999999999112 ) ) ;
#114 = DESIGN_CONTEXT ( 'detailed design', #88, 'design' ) ;
#115 = VERTEX_POINT ( 'NONE', #135 ) ;
#116 = CONICAL_SURFACE ( 'NONE', #50, 0.4249999999999909961, 1.029744258676649649 ) ;
#117 = ADVANCED_FACE ( 'NONE', ( #219 ), #261, .T. ) ;
#118 = DIRECTION ( 'NONE',  ( 1.903218546456022717E-15, 0.8571673007021097801, 0.5150380749100585964 ) ) ;
#119 = ORIENTED_EDGE ( 'NONE', *, *, #87, .T. ) ;
#120 = EDGE_LOOP ( 'NONE', ( #307, #272, #108, #267 ) ) ;
#121 = COORDINATED_UNIVERSAL_TIME_OFFSET ( 1, 0, .AHEAD. ) ;
#122 = EDGE_CURVE ( 'NONE', #115, #85, #48, .T. ) ;
#123 = DIRECTION ( 'NONE',  ( -4.531599869146533744E-31, -1.000000000000000000, -1.275531967630032363E-16 ) ) ;
#124 = PERSON_AND_ORGANIZATION ( #165, #305 ) ;
#125 = FACE_OUTER_BOUND ( 'NONE', #146, .T. ) ;
#126 = APPLICATION_PROTOCOL_DEFINITION ( 'international standard', 'config_control_design', 1994, #88 ) ;
#127 = PERSON_AND_ORGANIZATION_ROLE ( 'creator' ) ;
#128 = DIRECTION ( 'NONE',  ( -3.491481338843133355E-15, 1.224646799147353207E-16, -1.000000000000000000 ) ) ;
#129 = LOCAL_TIME ( 9, 21, 33.00000000000000000, #171 ) ;
#130 = LINE ( 'NONE', #208, #221 ) ;
#131 = EDGE_CURVE ( 'NONE', #246, #85, #11, .T. ) ;
#132 = LINE ( 'NONE', #65, #61 ) ;
#133 = CARTESIAN_POINT ( 'NONE',  ( 8.916047963966865720E-16, -3.127328643759613453E-17, 0.2553657630867105510 ) ) ;
#134 = CARTESIAN_POINT ( 'NONE',  ( 8.916047963966863747E-16, -0.4249999999999910516, 0.2553657630867104955 ) ) ;
#135 = CARTESIAN_POINT ( 'NONE',  ( 2.444036937190193033E-14, 0.4249999999999908296, 6.999999999999999112 ) ) ;
#136 = AXIS2_PLACEMENT_3D ( 'NONE', #200, #276, #166 ) ;
#137 = ADVANCED_FACE ( 'NONE', ( #160 ), #251, .T. ) ;
#138 = VERTEX_POINT ( 'NONE', #97 ) ;
#139 = VERTEX_POINT ( 'NONE', #112 ) ;
#140 = CIRCLE ( 'NONE', #230, 0.3249999999999939049 ) ;
#141 = APPROVAL_STATUS ( 'not_yet_approved' ) ;
#142 = DATE_TIME_ROLE ( 'classification_date' ) ;
#143 = AXIS2_PLACEMENT_3D ( 'NONE', #229, #205, #298 ) ;
#144 = ORIENTED_EDGE ( 'NONE', *, *, #268, .T. ) ;
#145 = VECTOR ( 'NONE', #118, 999.9999999999998863 ) ;
#146 = EDGE_LOOP ( 'NONE', ( #5, #144 ) ) ;
#147 =( NAMED_UNIT ( * ) PLANE_ANGLE_UNIT ( ) SI_UNIT ( $, .RADIAN. ) );
#148 = ADVANCED_FACE ( 'NONE', ( #213 ), #281, .F. ) ;
#149 = MECHANICAL_CONTEXT ( 'NONE', #72, 'mechanical' ) ;
#150 = ORIENTED_EDGE ( 'NONE', *, *, #190, .T. ) ;
#151 = PERSON_AND_ORGANIZATION_ROLE ( 'creator' ) ;
#152 = AXIS2_PLACEMENT_3D ( 'NONE', #153, #317, #100 ) ;
#153 = CARTESIAN_POINT ( 'NONE',  ( 0.0000000000000000000, 0.0000000000000000000, 0.0000000000000000000 ) ) ;
#154 = FACE_OUTER_BOUND ( 'NONE', #252, .T. ) ;
#155 = EDGE_CURVE ( 'NONE', #236, #90, #105, .T. ) ;
#156 = CYLINDRICAL_SURFACE ( 'NONE', #152, 0.4249999999999929390 ) ;
#157 = VECTOR ( 'NONE', #189, 1000.000000000000000 ) ;
#158 = SECURITY_CLASSIFICATION ( '', '', #9 ) ;
#159 = ORIENTED_EDGE ( 'NONE', *, *, #131, .F. ) ;
#160 = FACE_OUTER_BOUND ( 'NONE', #287, .T. ) ;
#161 = ORIENTED_EDGE ( 'NONE', *, *, #93, .T. ) ;
#162 = LOCAL_TIME ( 9, 21, 33.00000000000000000, #39 ) ;
#163 = CARTESIAN_POINT ( 'NONE',  ( 2.444036937190193033E-14, -8.572527594031472204E-16, 6.999999999999999112 ) ) ;
#164 = CYLINDRICAL_SURFACE ( 'NONE', #296, 0.4249999999999913847 ) ;
#165 = PERSON ( 'UNSPECIFIED', 'UNSPECIFIED', 'UNSPECIFIED', ('UNSPECIFIED'), ('UNSPECIFIED'), ('UNSPECIFIED') ) ;
#166 = DIRECTION ( 'NONE',  ( 1.000000000000000000, 0.0000000000000000000, 0.0000000000000000000 ) ) ;
#167 = ADVANCED_FACE ( 'NONE', ( #154 ), #116, .T. ) ;
#168 = LOCAL_TIME ( 9, 21, 33.00000000000000000, #306 ) ;
#169 = CARTESIAN_POINT ( 'NONE',  ( 1.817228364506177280E-31, 0.4249999999999929390, 5.204748896376164417E-17 ) ) ;
#170 = EDGE_CURVE ( 'NONE', #79, #223, #84, .T. ) ;
#171 = COORDINATED_UNIVERSAL_TIME_OFFSET ( 1, 0, .AHEAD. ) ;
#172 = CARTESIAN_POINT ( 'NONE',  ( 0.0000000000000000000, 0.0000000000000000000, 0.0000000000000000000 ) ) ;
#173 = PLANE ( 'NONE',  #196 ) ;
#174 = APPROVAL_PERSON_ORGANIZATION ( #240, #23, #58 ) ;
#175 = ORIENTED_EDGE ( 'NONE', *, *, #63, .T. ) ;
#176 = DIRECTION ( 'NONE',  ( -3.491481338843133355E-15, 1.224646799147353207E-16, -1.000000000000000000 ) ) ;
#177 = DIRECTION ( 'NONE',  ( -3.491481338843133355E-15, 1.224646799147353207E-16, -1.000000000000000000 ) ) ;
#178 = CIRCLE ( 'NONE', #282, 0.4249999999999916622 ) ;
#179 = DIRECTION ( 'NONE',  ( 0.0000000000000000000, 1.000000000000000000, 0.0000000000000000000 ) ) ;
#180 = CIRCLE ( 'NONE', #332, 0.4249999999999909961 ) ;
#181 = AXIS2_PLACEMENT_3D ( 'NONE', #133, #128, #314 ) ;
#182 = APPROVAL_STATUS ( 'not_yet_approved' ) ;
#183 = DIRECTION ( 'NONE',  ( -3.491481338843133355E-15, 1.224646799147353207E-16, -1.000000000000000000 ) ) ;
#184 = MANIFOLD_SOLID_BREP ( 'Corps-Déplacer/Copier1[1]', #26 ) ;
#185 = ORIENTED_EDGE ( 'NONE', *, *, #93, .F. ) ;
#186 = DIRECTION ( 'NONE',  ( -2.468850131082297292E-15, 0.7071067811865383579, -0.7071067811865565655 ) ) ;
#187 = VECTOR ( 'NONE', #275, 1000.000000000000000 ) ;
#188 = DIRECTION ( 'NONE',  ( -3.491481338843133355E-15, 1.224646799147353207E-16, -1.000000000000000000 ) ) ;
#189 = DIRECTION ( 'NONE',  ( -2.382254525458749813E-15, -0.7071067811865382469, -0.7071067811865568986 ) ) ;
#190 = EDGE_CURVE ( 'NONE', #90, #236, #140, .T. ) ;
#191 = DIRECTION ( 'NONE',  ( 0.0000000000000000000, 1.000000000000000000, 0.0000000000000000000 ) ) ;
#192 = CC_DESIGN_PERSON_AND_ORGANIZATION_ASSIGNMENT ( #91, #151, ( #17 ) ) ;
#193 = VECTOR ( 'NONE', #177, 1000.000000000000000 ) ;
#194 = CARTESIAN_POINT ( 'NONE',  ( 1.047444401652940007E-13, 0.3249999999999902411, 30.00000000000000000 ) ) ;
#195 = ORIENTED_EDGE ( 'NONE', *, *, #257, .T. ) ;
#196 = AXIS2_PLACEMENT_3D ( 'NONE', #37, #319, #44 ) ;
#197 = LOCAL_TIME ( 9, 21, 33.00000000000000000, #121 ) ;
#198 = ADVANCED_FACE ( 'NONE', ( #290 ), #156, .T. ) ;
#199 = EDGE_CURVE ( 'NONE', #77, #115, #178, .T. ) ;
#200 = CARTESIAN_POINT ( 'NONE',  ( 0.0000000000000000000, 0.0000000000000000000, 0.0000000000000000000 ) ) ;
#201 = DIRECTION ( 'NONE',  ( 0.0000000000000000000, 1.000000000000000000, 0.0000000000000000000 ) ) ;
#202 = DIRECTION ( 'NONE',  ( -3.491481338843133355E-15, 1.224646799147353207E-16, -1.000000000000000000 ) ) ;
#203 = LOCAL_TIME ( 9, 21, 33.00000000000000000, #1 ) ;
#204 = CONICAL_SURFACE ( 'NONE', #210, 0.4249999999999909961, 1.029744258676649649 ) ;
#205 = DIRECTION ( 'NONE',  ( -3.491481338843133355E-15, 1.224646799147353207E-16, -1.000000000000000000 ) ) ;
#206 = CC_DESIGN_APPROVAL ( #23, ( #158 ) ) ;
#207 = APPROVAL_DATE_TIME ( #286, #309 ) ;
#208 = CARTESIAN_POINT ( 'NONE',  ( 1.047444401652940007E-13, 0.3249999999999902411, 30.00000000000000000 ) ) ;
#209 = APPROVAL_ROLE ( '' ) ;
#210 = AXIS2_PLACEMENT_3D ( 'NONE', #94, #322, #123 ) ;
#211 = DIRECTION ( 'NONE',  ( 0.0000000000000000000, 1.000000000000000000, 0.0000000000000000000 ) ) ;
#212 = CARTESIAN_POINT ( 'NONE',  ( 1.043952920314096684E-13, -3.661693929450585821E-15, 29.89999999999999503 ) ) ;
#213 = FACE_OUTER_BOUND ( 'NONE', #321, .T. ) ;
#214 =( LENGTH_UNIT ( ) NAMED_UNIT ( * ) SI_UNIT ( .MILLI., .METRE. ) );
#215 = LINE ( 'NONE', #134, #187 ) ;
#216 = PERSON_AND_ORGANIZATION_ROLE ( 'design_supplier' ) ;
#217 = CALENDAR_DATE ( 2021, 3, 9 ) ;
#218 = CARTESIAN_POINT ( 'NONE',  ( 1.047444401652940007E-13, 2.437109646825417689E-33, 30.00000000000000000 ) ) ;
#219 = FACE_OUTER_BOUND ( 'NONE', #335, .T. ) ;
#220 = ORIENTED_EDGE ( 'NONE', *, *, #131, .T. ) ;
#221 = VECTOR ( 'NONE', #186, 1000.000000000000114 ) ;
#222 = CARTESIAN_POINT ( 'NONE',  ( 9.436522853604479450E-16, 0.4249999999999909406, 0.2553657630867106065 ) ) ;
#223 = VERTEX_POINT ( 'NONE', #64 ) ;
#224 = CIRCLE ( 'NONE', #259, 0.4249999999999941602 ) ;
#225 = CIRCLE ( 'NONE', #74, 0.4249999999999916622 ) ;
#226 = EDGE_LOOP ( 'NONE', ( #336, #249, #103, #243 ) ) ;
#227 = DIRECTION ( 'NONE',  ( -3.491481338843133355E-15, 1.224646799147353207E-16, -1.000000000000000000 ) ) ;
#228 = ORIENTED_EDGE ( 'NONE', *, *, #155, .F. ) ;
#229 = CARTESIAN_POINT ( 'NONE',  ( 0.0000000000000000000, 0.0000000000000000000, 0.0000000000000000000 ) ) ;
#230 = AXIS2_PLACEMENT_3D ( 'NONE', #95, #40, #318 ) ;
#231 = CC_DESIGN_DATE_AND_TIME_ASSIGNMENT ( #73, #4, ( #304 ) ) ;
#232 = ADVANCED_BREP_SHAPE_REPRESENTATION ( '253', ( #184, #60, #136 ), #315 ) ;
#233 = DIRECTION ( 'NONE',  ( -3.491481338843133355E-15, 1.224646799147353207E-16, -1.000000000000000000 ) ) ;
#234 = UNCERTAINTY_MEASURE_WITH_UNIT (LENGTH_MEASURE( 1.000000000000000082E-05 ), #214, 'distance_accuracy_value', 'NONE');
#235 = VECTOR ( 'NONE', #25, 1000.000000000000000 ) ;
#236 = VERTEX_POINT ( 'NONE', #295 ) ;
#237 = DIRECTION ( 'NONE',  ( 4.275831445896957731E-31, 1.000000000000000000, 1.224646799147352961E-16 ) ) ;
#238 = CALENDAR_DATE ( 2021, 3, 9 ) ;
#239 = FACE_OUTER_BOUND ( 'NONE', #226, .T. ) ;
#240 = PERSON_AND_ORGANIZATION ( #165, #305 ) ;
#241 = ORIENTED_EDGE ( 'NONE', *, *, #248, .F. ) ;
#242 = FACE_OUTER_BOUND ( 'NONE', #320, .T. ) ;
#243 = ORIENTED_EDGE ( 'NONE', *, *, #52, .F. ) ;
#244 = CYLINDRICAL_SURFACE ( 'NONE', #143, 0.4249999999999913847 ) ;
#245 = DIRECTION ( 'NONE',  ( -3.491481338843133355E-15, 1.224646799147353207E-16, -1.000000000000000000 ) ) ;
#246 = VERTEX_POINT ( 'NONE', #172 ) ;
#247 = CARTESIAN_POINT ( 'NONE',  ( 8.916047963966865720E-16, -3.127328643759613453E-17, 0.2553657630867105510 ) ) ;
#248 = EDGE_CURVE ( 'NONE', #115, #77, #225, .T. ) ;
#249 = ORIENTED_EDGE ( 'NONE', *, *, #155, .T. ) ;
#250 = ADVANCED_FACE ( 'NONE', ( #125 ), #38, .F. ) ;
#251 = CONICAL_SURFACE ( 'NONE', #35, 0.3249999999999939049, 0.7853981633974352894 ) ;
#252 = EDGE_LOOP ( 'NONE', ( #159, #291, #161 ) ) ;
#253 = PRODUCT_RELATED_PRODUCT_CATEGORY ( 'detail', '', ( #15 ) ) ;
#254 = CARTESIAN_POINT ( 'NONE',  ( 1.271803457311304754E-14, -0.4249999999999925504, 6.999999999999999112 ) ) ;
#255 = VECTOR ( 'NONE', #183, 1000.000000000000000 ) ;
#256 = DATE_AND_TIME ( #217, #203 ) ;
#257 = EDGE_CURVE ( 'NONE', #77, #32, #312, .T. ) ;
#258 = DIRECTION ( 'NONE',  ( -3.491481338843133355E-15, 1.224646799147353207E-16, -1.000000000000000000 ) ) ;
#259 = AXIS2_PLACEMENT_3D ( 'NONE', #327, #233, #328 ) ;
#260 = APPROVAL_PERSON_ORGANIZATION ( #75, #309, #24 ) ;
#261 = CYLINDRICAL_SURFACE ( 'NONE', #27, 0.4249999999999929390 ) ;
#262 = FACE_OUTER_BOUND ( 'NONE', #265, .T. ) ;
#263 = AXIS2_PLACEMENT_3D ( 'NONE', #218, #7, #92 ) ;
#264 = PERSON_AND_ORGANIZATION ( #165, #305 ) ;
#265 = EDGE_LOOP ( 'NONE', ( #299, #19, #29, #185 ) ) ;
#266 = FACE_OUTER_BOUND ( 'NONE', #68, .T. ) ;
#267 = ORIENTED_EDGE ( 'NONE', *, *, #87, .F. ) ;
#268 = EDGE_CURVE ( 'NONE', #223, #79, #325, .T. ) ;
#269 = DIRECTION ( 'NONE',  ( -3.491481338843133355E-15, 1.224646799147353207E-16, -1.000000000000000000 ) ) ;
#270 = APPROVAL_DATE_TIME ( #55, #107 ) ;
#271 = CIRCLE ( 'NONE', #181, 0.4249999999999909961 ) ;
#272 = ORIENTED_EDGE ( 'NONE', *, *, #14, .T. ) ;
#273 = AXIS2_PLACEMENT_3D ( 'NONE', #285, #227, #201 ) ;
#274 = EDGE_CURVE ( 'NONE', #90, #139, #130, .T. ) ;
#275 = DIRECTION ( 'NONE',  ( 1.798245827342160317E-15, -0.8571673007021098911, 0.5150380749100582634 ) ) ;
#276 = DIRECTION ( 'NONE',  ( 0.0000000000000000000, 0.0000000000000000000, 1.000000000000000000 ) ) ;
#277 = AXIS2_PLACEMENT_3D ( 'NONE', #66, #62, #179 ) ;
#278 = CARTESIAN_POINT ( 'NONE',  ( 2.444036937190193033E-14, 3.186989538156372152E-33, 6.999999999999999112 ) ) ;
#279 = CC_DESIGN_PERSON_AND_ORGANIZATION_ASSIGNMENT ( #86, #127, ( #304 ) ) ;
#280 = DIRECTION ( 'NONE',  ( 3.491481338843133355E-15, -1.224646799147353207E-16, 1.000000000000000000 ) ) ;
#281 = PLANE ( 'NONE',  #263 ) ;
#282 = AXIS2_PLACEMENT_3D ( 'NONE', #43, #245, #13 ) ;
#283 = CARTESIAN_POINT ( 'NONE',  ( 9.436522853604479450E-16, 0.4249999999999909406, 0.2553657630867106065 ) ) ;
#284 = CALENDAR_DATE ( 2021, 3, 9 ) ;
#285 = CARTESIAN_POINT ( 'NONE',  ( 1.047444401652940007E-13, -3.673940397442059178E-15, 30.00000000000000000 ) ) ;
#286 = DATE_AND_TIME ( #238, #129 ) ;
#287 = EDGE_LOOP ( 'NONE', ( #150, #175, #324, #311 ) ) ;
#288 = AXIS2_PLACEMENT_3D ( 'NONE', #212, #188, #82 ) ;
#289 = PERSON_AND_ORGANIZATION_ROLE ( 'design_owner' ) ;
#290 = FACE_OUTER_BOUND ( 'NONE', #120, .T. ) ;
#291 = ORIENTED_EDGE ( 'NONE', *, *, #36, .T. ) ;
#292 = APPROVAL_PERSON_ORGANIZATION ( #297, #107, #209 ) ;
#293 = CARTESIAN_POINT ( 'NONE',  ( 1.817228364506170273E-31, 0.4249999999999913847, 5.204748896376144696E-17 ) ) ;
#294 = CARTESIAN_POINT ( 'NONE',  ( 2.444036937190193033E-14, -8.572527594031472204E-16, 6.999999999999999112 ) ) ;
#295 = CARTESIAN_POINT ( 'NONE',  ( 1.046157903533198570E-13, -0.3249999999999976241, 30.00000000000000000 ) ) ;
#296 = AXIS2_PLACEMENT_3D ( 'NONE', #51, #22, #237 ) ;
#297 = PERSON_AND_ORGANIZATION ( #165, #305 ) ;
#298 = DIRECTION ( 'NONE',  ( 4.275831445896957731E-31, 1.000000000000000000, 1.224646799147352961E-16 ) ) ;
#299 = ORIENTED_EDGE ( 'NONE', *, *, #257, .F. ) ;
#300 = CARTESIAN_POINT ( 'NONE',  ( 8.916047963966865720E-16, -3.127328643759613453E-17, 0.2553657630867105510 ) ) ;
#301 = CC_DESIGN_APPROVAL ( #309, ( #304 ) ) ;
#302 = CALENDAR_DATE ( 2021, 3, 9 ) ;
#303 = APPROVAL_STATUS ( 'not_yet_approved' ) ;
#304 = PRODUCT_DEFINITION ( 'UNKNOWN', '', #17, #114 ) ;
#305 = ORGANIZATION ( 'UNSPECIFIED', 'UNSPECIFIED', '' ) ;
#306 = COORDINATED_UNIVERSAL_TIME_OFFSET ( 1, 0, .AHEAD. ) ;
#307 = ORIENTED_EDGE ( 'NONE', *, *, #49, .T. ) ;
#308 = ADVANCED_FACE ( 'NONE', ( #18 ), #164, .T. ) ;
#309 = APPROVAL ( #141, 'UNSPECIFIED' ) ;
#310 = DATE_AND_TIME ( #302, #168 ) ;
#311 = ORIENTED_EDGE ( 'NONE', *, *, #274, .F. ) ;
#312 = LINE ( 'NONE', #96, #193 ) ;
#313 = CLOSED_SHELL ( 'NONE', ( #308, #10, #167, #30, #98 ) ) ;
#314 = DIRECTION ( 'NONE',  ( 4.531599869146533744E-31, 1.000000000000000000, 1.275531967630032363E-16 ) ) ;
#315 =( GEOMETRIC_REPRESENTATION_CONTEXT ( 3 ) GLOBAL_UNCERTAINTY_ASSIGNED_CONTEXT ( ( #234 ) ) GLOBAL_UNIT_ASSIGNED_CONTEXT ( ( #214, #147, #33 ) ) REPRESENTATION_CONTEXT ( 'NONE', 'WORKASPACE' ) );
#316 = CARTESIAN_POINT ( 'NONE',  ( 1.047444401652940007E-13, -3.673940397442059178E-15, 30.00000000000000000 ) ) ;
#317 = DIRECTION ( 'NONE',  ( -3.491481338843133355E-15, 1.224646799147353207E-16, -1.000000000000000000 ) ) ;
#318 = DIRECTION ( 'NONE',  ( 0.0000000000000000000, 1.000000000000000000, 0.0000000000000000000 ) ) ;
#319 = DIRECTION ( 'NONE',  ( 3.491481338843133355E-15, -1.224646799147353207E-16, 1.000000000000000000 ) ) ;
#320 = EDGE_LOOP ( 'NONE', ( #28, #220, #99 ) ) ;
#321 = EDGE_LOOP ( 'NONE', ( #41, #228 ) ) ;
#322 = DIRECTION ( 'NONE',  ( 3.491481338843133355E-15, -1.224646799147353207E-16, 1.000000000000000000 ) ) ;
#323 = PRODUCT_DEFINITION_SHAPE ( 'NONE', 'NONE',  #304 ) ;
#324 = ORIENTED_EDGE ( 'NONE', *, *, #49, .F. ) ;
#325 = CIRCLE ( 'NONE', #21, 0.4249999999999916622 ) ;
#326 = DIRECTION ( 'NONE',  ( 0.0000000000000000000, 1.000000000000000000, 0.0000000000000000000 ) ) ;
#327 = CARTESIAN_POINT ( 'NONE',  ( 1.043952920314096684E-13, -3.661693929450585821E-15, 29.89999999999999503 ) ) ;
#328 = DIRECTION ( 'NONE',  ( 0.0000000000000000000, 1.000000000000000000, 0.0000000000000000000 ) ) ;
#329 = DIRECTION ( 'NONE',  ( -3.491481338843133355E-15, 1.224646799147353207E-16, -1.000000000000000000 ) ) ;
#330 = LINE ( 'NONE', #337, #157 ) ;
#331 = DIRECTION ( 'NONE',  ( -3.491481338843133355E-15, 1.224646799147353207E-16, -1.000000000000000000 ) ) ;
#332 = AXIS2_PLACEMENT_3D ( 'NONE', #247, #202, #70 ) ;
#333 = APPLICATION_PROTOCOL_DEFINITION ( 'international standard', 'config_control_design', 1994, #72 ) ;
#334 = ADVANCED_FACE ( 'NONE', ( #239 ), #69, .T. ) ;
#335 = EDGE_LOOP ( 'NONE', ( #53, #16, #119, #3 ) ) ;
#336 = ORIENTED_EDGE ( 'NONE', *, *, #63, .F. ) ;
#337 = CARTESIAN_POINT ( 'NONE',  ( 1.047842411862662877E-13, -0.3249999999999976241, 30.00000000000000000 ) ) ;
ENDSEC;
END-ISO-10303-21;
