ISO-10303-21;
HEADER;
FILE_DESCRIPTION (( 'STEP AP203' ),
    '1' );
FILE_NAME ('25291.step',
    '2021-09-03T07:21:32',
    ( '' ),
    ( '' ),
    'SwSTEP 2.0',
    'SolidWorks 2019',
    '' );
FILE_SCHEMA (( 'CONFIG_CONTROL_DESIGN' ));
ENDSEC;

DATA;
#1 = CALENDAR_DATE ( 2021, 3, 9 ) ;
#2 = DIRECTION ( 'NONE',  ( 0.0000000000000000000, 1.000000000000000000, 0.0000000000000000000 ) ) ;
#3 = FACE_OUTER_BOUND ( 'NONE', #337, .T. ) ;
#4 = CARTESIAN_POINT ( 'NONE',  ( 2.758270257686075477E-13, 3.299999999999996714, 79.00000000000000000 ) ) ;
#5 = CIRCLE ( 'NONE', #176, 4.100000000000005862 ) ;
#6 = DIRECTION ( 'NONE',  ( -3.491481338843133355E-15, 1.224646799147353207E-16, -1.000000000000000000 ) ) ;
#7 = DIRECTION ( 'NONE',  ( -3.491481338843133355E-15, 1.224646799147353207E-16, -1.000000000000000000 ) ) ;
#8 = ORIENTED_EDGE ( 'NONE', *, *, #30, .T. ) ;
#9 = CARTESIAN_POINT ( 'NONE',  ( 2.758270257686075477E-13, -9.674709713264090904E-15, 79.00000000000000000 ) ) ;
#10 = APPROVAL_STATUS ( 'not_yet_approved' ) ;
#11 = ADVANCED_FACE ( 'NONE', ( #38 ), #321, .T. ) ;
#12 = CARTESIAN_POINT ( 'NONE',  ( 8.601363918179969986E-15, -4.099999999999996092, 2.463528538013020963 ) ) ;
#13 = AXIS2_PLACEMENT_3D ( 'NONE', #318, #94, #112 ) ;
#14 = LOCAL_TIME ( 9, 21, 32.00000000000000000, #70 ) ;
#15 = LINE ( 'NONE', #296, #226 ) ;
#16 = DIRECTION ( 'NONE',  ( -4.275831445896958607E-31, -1.000000000000000000, -1.224646799147353207E-16 ) ) ;
#17 = PERSON_AND_ORGANIZATION ( #107, #289 ) ;
#18 = CYLINDRICAL_SURFACE ( 'NONE', #311, 4.099999999999997868 ) ;
#19 = EDGE_CURVE ( 'NONE', #162, #313, #259, .T. ) ;
#20 = COORDINATED_UNIVERSAL_TIME_OFFSET ( 1, 0, .AHEAD. ) ;
#21 = AXIS2_PLACEMENT_3D ( 'NONE', #151, #37, #247 ) ;
#22 = DIRECTION ( 'NONE',  ( 0.0000000000000000000, 1.000000000000000000, 0.0000000000000000000 ) ) ;
#23 = EDGE_CURVE ( 'NONE', #202, #31, #329, .T. ) ;
#24 = VERTEX_POINT ( 'NONE', #43 ) ;
#25 = CIRCLE ( 'NONE', #21, 4.099999999999996092 ) ;
#26 = PRODUCT_DEFINITION_FORMATION_WITH_SPECIFIED_SOURCE ( 'ANY', '', #273, .NOT_KNOWN. ) ;
#27 = DIRECTION ( 'NONE',  ( -3.491481338843133355E-15, 1.224646799147353207E-16, -1.000000000000000000 ) ) ;
#28 = EDGE_CURVE ( 'NONE', #202, #313, #188, .T. ) ;
#29 = AXIS2_PLACEMENT_3D ( 'NONE', #237, #66, #2 ) ;
#30 = EDGE_CURVE ( 'NONE', #133, #328, #230, .T. ) ;
#31 = VERTEX_POINT ( 'NONE', #41 ) ;
#32 = ORIENTED_EDGE ( 'NONE', *, *, #90, .F. ) ;
#33 = CARTESIAN_POINT ( 'NONE',  ( 0.0000000000000000000, 0.0000000000000000000, 0.0000000000000000000 ) ) ;
#34 = PERSON_AND_ORGANIZATION_ROLE ( 'creator' ) ;
#35 = CARTESIAN_POINT ( 'NONE',  ( 5.021051876504134566E-16, -4.100000000000003197, -5.021051876504169079E-16 ) ) ;
#36 = CARTESIAN_POINT ( 'NONE',  ( 0.0000000000000000000, 0.0000000000000000000, 0.0000000000000000000 ) ) ;
#37 = DIRECTION ( 'NONE',  ( -3.491481338843133355E-15, 1.224646799147353207E-16, -1.000000000000000000 ) ) ;
#38 = FACE_OUTER_BOUND ( 'NONE', #75, .T. ) ;
#39 = APPROVAL_ROLE ( '' ) ;
#40 = CARTESIAN_POINT ( 'NONE',  ( 2.758270257686075477E-13, -9.674709713264090904E-15, 79.00000000000000000 ) ) ;
#41 = CARTESIAN_POINT ( 'NONE',  ( 9.103469105830387880E-15, 4.099999999999996092, 2.463528538013021851 ) ) ;
#42 = ORIENTED_EDGE ( 'NONE', *, *, #250, .F. ) ;
#43 = CARTESIAN_POINT ( 'NONE',  ( 1.841540236107991125E-13, -4.100000000000014744, 78.20000000000000284 ) ) ;
#44 = AXIS2_PLACEMENT_3D ( 'NONE', #129, #316, #132 ) ;
#45 = CC_DESIGN_PERSON_AND_ORGANIZATION_ASSIGNMENT ( #208, #34, ( #294 ) ) ;
#46 = VECTOR ( 'NONE', #68, 1000.000000000000000 ) ;
#47 = PERSON_AND_ORGANIZATION_ROLE ( 'creator' ) ;
#48 = APPLICATION_CONTEXT ( 'configuration controlled 3d designs of mechanical parts and assemblies' ) ;
#49 = ORIENTED_EDGE ( 'NONE', *, *, #332, .F. ) ;
#50 = CALENDAR_DATE ( 2021, 3, 9 ) ;
#51 = DIRECTION ( 'NONE',  ( -3.491481338843133355E-15, 1.224646799147353207E-16, -1.000000000000000000 ) ) ;
#52 = EDGE_CURVE ( 'NONE', #162, #131, #269, .T. ) ;
#53 = FACE_OUTER_BOUND ( 'NONE', #168, .T. ) ;
#54 = COORDINATED_UNIVERSAL_TIME_OFFSET ( 1, 0, .AHEAD. ) ;
#55 = APPROVAL_PERSON_ORGANIZATION ( #60, #130, #164 ) ;
#56 = ORIENTED_EDGE ( 'NONE', *, *, #23, .F. ) ;
#57 = ORIENTED_EDGE ( 'NONE', *, *, #52, .F. ) ;
#58 = DIRECTION ( 'NONE',  ( -3.491481338843133355E-15, 1.224646799147353207E-16, -1.000000000000000000 ) ) ;
#59 = MANIFOLD_SOLID_BREP ( 'Corps-Déplacer/Copier1[1]', #305 ) ;
#60 = PERSON_AND_ORGANIZATION ( #107, #289 ) ;
#61 = DIRECTION ( 'NONE',  ( -3.491481338843133355E-15, 1.224646799147353207E-16, -1.000000000000000000 ) ) ;
#62 = LINE ( 'NONE', #319, #192 ) ;
#63 =( LENGTH_UNIT ( ) NAMED_UNIT ( * ) SI_UNIT ( .MILLI., .METRE. ) );
#64 = MANIFOLD_SOLID_BREP ( 'Corps-Déplacer/Copier1[2]', #148 ) ;
#65 = CC_DESIGN_PERSON_AND_ORGANIZATION_ASSIGNMENT ( #185, #47, ( #26 ) ) ;
#66 = DIRECTION ( 'NONE',  ( -3.491481338843133355E-15, 1.224646799147353207E-16, -1.000000000000000000 ) ) ;
#67 = DIRECTION ( 'NONE',  ( -3.491481338843133355E-15, 1.224646799147353207E-16, -1.000000000000000000 ) ) ;
#68 = DIRECTION ( 'NONE',  ( -3.491481338843133355E-15, 1.224646799147353207E-16, -1.000000000000000000 ) ) ;
#69 = ORIENTED_EDGE ( 'NONE', *, *, #290, .F. ) ;
#70 = COORDINATED_UNIVERSAL_TIME_OFFSET ( 1, 0, .AHEAD. ) ;
#71 = ORIENTED_EDGE ( 'NONE', *, *, #145, .F. ) ;
#72 = DIRECTION ( 'NONE',  ( 0.0000000000000000000, 0.0000000000000000000, 1.000000000000000000 ) ) ;
#73 = PERSON_AND_ORGANIZATION ( #107, #289 ) ;
#74 = EDGE_LOOP ( 'NONE', ( #249, #193, #209, #274 ) ) ;
#75 = EDGE_LOOP ( 'NONE', ( #187, #57 ) ) ;
#76 = ORIENTED_EDGE ( 'NONE', *, *, #145, .T. ) ;
#77 = CARTESIAN_POINT ( 'NONE',  ( 9.103469105830387880E-15, 4.099999999999996092, 2.463528538013021851 ) ) ;
#78 = DIRECTION ( 'NONE',  ( -3.757912086609244246E-31, -1.000000000000000000, -1.057758217059029717E-16 ) ) ;
#79 = DIRECTION ( 'NONE',  ( 4.275831445896958607E-31, 1.000000000000000000, 1.224646799147353207E-16 ) ) ;
#80 = EDGE_CURVE ( 'NONE', #328, #133, #82, .T. ) ;
#81 = EDGE_LOOP ( 'NONE', ( #184, #8, #150, #69 ) ) ;
#82 = CIRCLE ( 'NONE', #141, 3.300000000000006040 ) ;
#83 = LOCAL_TIME ( 9, 21, 32.00000000000000000, #102 ) ;
#84 = DIRECTION ( 'NONE',  ( 3.757912086609244246E-31, 1.000000000000000000, 1.057758217059029717E-16 ) ) ;
#85 = PERSON_AND_ORGANIZATION ( #107, #289 ) ;
#86 = ORIENTED_EDGE ( 'NONE', *, *, #28, .F. ) ;
#87 = CARTESIAN_POINT ( 'NONE',  ( 1.753090892817754272E-30, 4.100000000000003197, 5.021051876504152316E-16 ) ) ;
#88 = CALENDAR_DATE ( 2021, 3, 9 ) ;
#89 = CARTESIAN_POINT ( 'NONE',  ( 2.730338406975330915E-13, -9.576737969332302470E-15, 78.20000000000000284 ) ) ;
#90 = EDGE_CURVE ( 'NONE', #191, #24, #310, .T. ) ;
#91 = LINE ( 'NONE', #35, #210 ) ;
#92 = FACE_OUTER_BOUND ( 'NONE', #81, .T. ) ;
#93 = VECTOR ( 'NONE', #67, 1000.000000000000000 ) ;
#94 = DIRECTION ( 'NONE',  ( -3.491481338843133355E-15, 1.224646799147353207E-16, -1.000000000000000000 ) ) ;
#95 = EDGE_LOOP ( 'NONE', ( #181, #174, #126, #42 ) ) ;
#96 = AXIS2_PLACEMENT_3D ( 'NONE', #291, #72, #138 ) ;
#97 = DIRECTION ( 'NONE',  ( 4.275831445896958607E-31, 1.000000000000000000, 1.224646799147353207E-16 ) ) ;
#98 = DIRECTION ( 'NONE',  ( -2.382254525458709186E-15, -0.7071067811865493491, -0.7071067811865456854 ) ) ;
#99 = CARTESIAN_POINT ( 'NONE',  ( 1.753090892817752170E-30, 4.099999999999997868, 5.021051876504145413E-16 ) ) ;
#100 = ADVANCED_FACE ( 'NONE', ( #200 ), #229, .F. ) ;
#101 = DIRECTION ( 'NONE',  ( -3.491481338843133355E-15, 1.224646799147353207E-16, -1.000000000000000000 ) ) ;
#102 = COORDINATED_UNIVERSAL_TIME_OFFSET ( 1, 0, .AHEAD. ) ;
#103 = DIRECTION ( 'NONE',  ( 0.0000000000000000000, 1.000000000000000000, 0.0000000000000000000 ) ) ;
#104 = AXIS2_PLACEMENT_3D ( 'NONE', #40, #101, #248 ) ;
#105 = FACE_OUTER_BOUND ( 'NONE', #264, .T. ) ;
#106 = PRODUCT_RELATED_PRODUCT_CATEGORY ( 'detail', '', ( #273 ) ) ;
#107 = PERSON ( 'UNSPECIFIED', 'UNSPECIFIED', 'UNSPECIFIED', ('UNSPECIFIED'), ('UNSPECIFIED'), ('UNSPECIFIED') ) ;
#108 = ORIENTED_EDGE ( 'NONE', *, *, #80, .F. ) ;
#109 = AXIS2_PLACEMENT_3D ( 'NONE', #9, #266, #295 ) ;
#110 =( GEOMETRIC_REPRESENTATION_CONTEXT ( 3 ) GLOBAL_UNCERTAINTY_ASSIGNED_CONTEXT ( ( #114 ) ) GLOBAL_UNIT_ASSIGNED_CONTEXT ( ( #63, #220, #315 ) ) REPRESENTATION_CONTEXT ( 'NONE', 'WORKASPACE' ) );
#111 = APPROVAL_DATE_TIME ( #279, #243 ) ;
#112 = DIRECTION ( 'NONE',  ( 0.0000000000000000000, 1.000000000000000000, 0.0000000000000000000 ) ) ;
#113 = FACE_OUTER_BOUND ( 'NONE', #74, .T. ) ;
#114 = UNCERTAINTY_MEASURE_WITH_UNIT (LENGTH_MEASURE( 1.000000000000000082E-05 ), #63, 'distance_accuracy_value', 'NONE');
#115 = DIRECTION ( 'NONE',  ( 4.275831445896958607E-31, 1.000000000000000000, 1.224646799147353207E-16 ) ) ;
#116 = LOCAL_TIME ( 9, 21, 32.00000000000000000, #20 ) ;
#117 = ADVANCED_FACE ( 'NONE', ( #53 ), #261, .T. ) ;
#118 = CARTESIAN_POINT ( 'NONE',  ( 2.758270257686075477E-13, -9.674709713264090904E-15, 79.00000000000000000 ) ) ;
#119 = CYLINDRICAL_SURFACE ( 'NONE', #198, 4.099999999999997868 ) ;
#120 = PERSON_AND_ORGANIZATION_ROLE ( 'design_owner' ) ;
#121 = EDGE_CURVE ( 'NONE', #24, #224, #91, .T. ) ;
#122 = CIRCLE ( 'NONE', #29, 4.099999999999999645 ) ;
#123 = CYLINDRICAL_SURFACE ( 'NONE', #257, 4.100000000000003197 ) ;
#124 = ADVANCED_BREP_SHAPE_REPRESENTATION ( '25291', ( #59, #64, #96 ), #110 ) ;
#125 = APPLICATION_PROTOCOL_DEFINITION ( 'international standard', 'config_control_design', 1994, #217 ) ;
#126 = ORIENTED_EDGE ( 'NONE', *, *, #255, .T. ) ;
#127 = LINE ( 'NONE', #99, #46 ) ;
#128 = DIRECTION ( 'NONE',  ( 4.275831445896958607E-31, 1.000000000000000000, 1.224646799147353207E-16 ) ) ;
#129 = CARTESIAN_POINT ( 'NONE',  ( 9.426999614876460059E-14, 3.074507554456802622E-32, 27.00000000000000000 ) ) ;
#130 = APPROVAL ( #146, 'UNSPECIFIED' ) ;
#131 = VERTEX_POINT ( 'NONE', #292 ) ;
#132 = DIRECTION ( 'NONE',  ( -4.275831445896958607E-31, -1.000000000000000000, -1.224646799147353207E-16 ) ) ;
#133 = VERTEX_POINT ( 'NONE', #320 ) ;
#134 = ORIENTED_EDGE ( 'NONE', *, *, #30, .F. ) ;
#135 = DATE_AND_TIME ( #298, #116 ) ;
#136 = CC_DESIGN_APPROVAL ( #130, ( #294 ) ) ;
#137 = ORIENTED_EDGE ( 'NONE', *, *, #153, .F. ) ;
#138 = DIRECTION ( 'NONE',  ( 1.000000000000000000, 0.0000000000000000000, 0.0000000000000000000 ) ) ;
#139 = PRODUCT_DEFINITION_SHAPE ( 'NONE', 'NONE',  #294 ) ;
#140 = EDGE_CURVE ( 'NONE', #133, #24, #62, .T. ) ;
#141 = AXIS2_PLACEMENT_3D ( 'NONE', #213, #281, #285 ) ;
#142 = DIRECTION ( 'NONE',  ( 0.0000000000000000000, 1.000000000000000000, 0.0000000000000000000 ) ) ;
#143 = CIRCLE ( 'NONE', #246, 4.099999999999999645 ) ;
#144 = DIRECTION ( 'NONE',  ( 0.0000000000000000000, 1.000000000000000000, 0.0000000000000000000 ) ) ;
#145 = EDGE_CURVE ( 'NONE', #31, #313, #25, .T. ) ;
#146 = APPROVAL_STATUS ( 'not_yet_approved' ) ;
#147 = CARTESIAN_POINT ( 'NONE',  ( 0.0000000000000000000, 0.0000000000000000000, 0.0000000000000000000 ) ) ;
#148 = CLOSED_SHELL ( 'NONE', ( #267, #117, #233, #236, #11 ) ) ;
#149 = DATE_AND_TIME ( #284, #175 ) ;
#150 = ORIENTED_EDGE ( 'NONE', *, *, #153, .T. ) ;
#151 = CARTESIAN_POINT ( 'NONE',  ( 8.601363918179971564E-15, -3.016952338685805082E-16, 2.463528538013021407 ) ) ;
#152 = CARTESIAN_POINT ( 'NONE',  ( 2.758270257686075477E-13, 2.474603641392055747E-32, 79.00000000000000000 ) ) ;
#153 = EDGE_CURVE ( 'NONE', #328, #191, #15, .T. ) ;
#154 = DIRECTION ( 'NONE',  ( -3.491481338843133355E-15, 1.224646799147353207E-16, -1.000000000000000000 ) ) ;
#155 = AXIS2_PLACEMENT_3D ( 'NONE', #89, #7, #216 ) ;
#156 = CC_DESIGN_SECURITY_CLASSIFICATION ( #227, ( #26 ) ) ;
#157 = DIRECTION ( 'NONE',  ( -3.491481338843133355E-15, 1.224646799147353207E-16, -1.000000000000000000 ) ) ;
#158 = CC_DESIGN_DATE_AND_TIME_ASSIGNMENT ( #149, #263, ( #294 ) ) ;
#159 = VERTEX_POINT ( 'NONE', #256 ) ;
#160 = VECTOR ( 'NONE', #27, 1000.000000000000000 ) ;
#161 = DIRECTION ( 'NONE',  ( -3.757912086609244246E-31, -1.000000000000000000, -1.057758217059029717E-16 ) ) ;
#162 = VERTEX_POINT ( 'NONE', #196 ) ;
#163 = FACE_OUTER_BOUND ( 'NONE', #207, .T. ) ;
#164 = APPROVAL_ROLE ( '' ) ;
#165 = ORIENTED_EDGE ( 'NONE', *, *, #307, .F. ) ;
#166 = CIRCLE ( 'NONE', #205, 4.099999999999996092 ) ;
#167 = ORIENTED_EDGE ( 'NONE', *, *, #19, .T. ) ;
#168 = EDGE_LOOP ( 'NONE', ( #86, #335, #76 ) ) ;
#169 = ADVANCED_FACE ( 'NONE', ( #113 ), #123, .T. ) ;
#170 = APPLICATION_PROTOCOL_DEFINITION ( 'international standard', 'config_control_design', 1994, #48 ) ;
#171 = ORIENTED_EDGE ( 'NONE', *, *, #52, .T. ) ;
#172 = DESIGN_CONTEXT ( 'detailed design', #217, 'design' ) ;
#173 = DIRECTION ( 'NONE',  ( -2.468850131082258244E-15, 0.7071067811865495711, -0.7071067811865454633 ) ) ;
#174 = ORIENTED_EDGE ( 'NONE', *, *, #290, .T. ) ;
#175 = LOCAL_TIME ( 9, 21, 32.00000000000000000, #54 ) ;
#176 = AXIS2_PLACEMENT_3D ( 'NONE', #239, #51, #22 ) ;
#177 = DIRECTION ( 'NONE',  ( -3.491481338843133355E-15, 1.224646799147353207E-16, -1.000000000000000000 ) ) ;
#178 = FACE_OUTER_BOUND ( 'NONE', #95, .T. ) ;
#179 = ORIENTED_EDGE ( 'NONE', *, *, #308, .T. ) ;
#180 = CARTESIAN_POINT ( 'NONE',  ( 8.601363918179971564E-15, -3.016952338685805082E-16, 2.463528538013021407 ) ) ;
#181 = ORIENTED_EDGE ( 'NONE', *, *, #121, .F. ) ;
#182 = AXIS2_PLACEMENT_3D ( 'NONE', #152, #333, #280 ) ;
#183 = CC_DESIGN_APPROVAL ( #314, ( #227 ) ) ;
#184 = ORIENTED_EDGE ( 'NONE', *, *, #140, .F. ) ;
#185 = PERSON_AND_ORGANIZATION ( #107, #289 ) ;
#186 = APPROVAL_DATE_TIME ( #299, #130 ) ;
#187 = ORIENTED_EDGE ( 'NONE', *, *, #300, .F. ) ;
#188 = LINE ( 'NONE', #12, #306 ) ;
#189 = DIRECTION ( 'NONE',  ( 3.491481338843133355E-15, -1.224646799147353207E-16, 1.000000000000000000 ) ) ;
#190 = SHAPE_DEFINITION_REPRESENTATION ( #139, #124 ) ;
#191 = VERTEX_POINT ( 'NONE', #312 ) ;
#192 = VECTOR ( 'NONE', #98, 1000.000000000000000 ) ;
#193 = ORIENTED_EDGE ( 'NONE', *, *, #121, .T. ) ;
#194 = ORIENTED_EDGE ( 'NONE', *, *, #250, .T. ) ;
#195 = CARTESIAN_POINT ( 'NONE',  ( 8.601363918179969986E-15, -4.099999999999996092, 2.463528538013020963 ) ) ;
#196 = CARTESIAN_POINT ( 'NONE',  ( 5.193778522112265822E-14, -4.100000000000003197, 27.00000000000000000 ) ) ;
#197 = ADVANCED_FACE ( 'NONE', ( #92 ), #219, .T. ) ;
#198 = AXIS2_PLACEMENT_3D ( 'NONE', #147, #6, #128 ) ;
#199 = ORIENTED_EDGE ( 'NONE', *, *, #300, .T. ) ;
#200 = FACE_OUTER_BOUND ( 'NONE', #330, .T. ) ;
#201 = ADVANCED_FACE ( 'NONE', ( #178 ), #265, .T. ) ;
#202 = VERTEX_POINT ( 'NONE', #36 ) ;
#203 = ADVANCED_FACE ( 'NONE', ( #228 ), #242, .T. ) ;
#204 = DATE_AND_TIME ( #50, #83 ) ;
#205 = AXIS2_PLACEMENT_3D ( 'NONE', #180, #61, #84 ) ;
#206 = CARTESIAN_POINT ( 'NONE',  ( 9.426999614876460059E-14, 3.074507554456802622E-32, 27.00000000000000000 ) ) ;
#207 = EDGE_LOOP ( 'NONE', ( #179, #194 ) ) ;
#208 = PERSON_AND_ORGANIZATION ( #107, #289 ) ;
#209 = ORIENTED_EDGE ( 'NONE', *, *, #308, .F. ) ;
#210 = VECTOR ( 'NONE', #154, 1000.000000000000000 ) ;
#211 = DIRECTION ( 'NONE',  ( 3.491481338843133355E-15, -1.224646799147353207E-16, 1.000000000000000000 ) ) ;
#212 = APPROVAL_DATE_TIME ( #135, #314 ) ;
#213 = CARTESIAN_POINT ( 'NONE',  ( 2.758270257686075477E-13, -9.674709713264090904E-15, 79.00000000000000000 ) ) ;
#214 = CARTESIAN_POINT ( 'NONE',  ( 9.426999614876460059E-14, -3.306546357697853733E-15, 27.00000000000000000 ) ) ;
#215 = PERSON_AND_ORGANIZATION ( #107, #289 ) ;
#216 = DIRECTION ( 'NONE',  ( 0.0000000000000000000, 1.000000000000000000, 0.0000000000000000000 ) ) ;
#217 = APPLICATION_CONTEXT ( 'configuration controlled 3d designs of mechanical parts and assemblies' ) ;
#218 = CARTESIAN_POINT ( 'NONE',  ( 5.021051876504127664E-16, -4.099999999999997868, -5.021051876504162176E-16 ) ) ;
#219 = CONICAL_SURFACE ( 'NONE', #109, 3.300000000000006040, 0.7853981633974510546 ) ;
#220 =( NAMED_UNIT ( * ) PLANE_ANGLE_UNIT ( ) SI_UNIT ( $, .RADIAN. ) );
#221 = CC_DESIGN_DATE_AND_TIME_ASSIGNMENT ( #204, #272, ( #227 ) ) ;
#222 = DIRECTION ( 'NONE',  ( 1.798245827342159528E-15, -0.8571673007021100021, 0.5150380749100580413 ) ) ;
#223 = ORIENTED_EDGE ( 'NONE', *, *, #80, .T. ) ;
#224 = VERTEX_POINT ( 'NONE', #270 ) ;
#225 = DIRECTION ( 'NONE',  ( -3.491481338843133355E-15, 1.224646799147353207E-16, -1.000000000000000000 ) ) ;
#226 = VECTOR ( 'NONE', #173, 1000.000000000000000 ) ;
#227 = SECURITY_CLASSIFICATION ( '', '', #232 ) ;
#228 = FACE_OUTER_BOUND ( 'NONE', #278, .T. ) ;
#229 = PLANE ( 'NONE',  #182 ) ;
#230 = CIRCLE ( 'NONE', #276, 3.300000000000006040 ) ;
#231 = LOCAL_TIME ( 9, 21, 32.00000000000000000, #268 ) ;
#232 = SECURITY_CLASSIFICATION_LEVEL ( 'unclassified' ) ;
#233 = ADVANCED_FACE ( 'NONE', ( #105 ), #271, .T. ) ;
#234 = PERSON_AND_ORGANIZATION ( #107, #289 ) ;
#235 = AXIS2_PLACEMENT_3D ( 'NONE', #303, #211, #161 ) ;
#236 = ADVANCED_FACE ( 'NONE', ( #336 ), #18, .T. ) ;
#237 = CARTESIAN_POINT ( 'NONE',  ( 9.426999614876460059E-14, -3.306546357697853733E-15, 27.00000000000000000 ) ) ;
#238 = MECHANICAL_CONTEXT ( 'NONE', #48, 'mechanical' ) ;
#239 = CARTESIAN_POINT ( 'NONE',  ( 2.730338406975330915E-13, -9.576737969332302470E-15, 78.20000000000000284 ) ) ;
#240 = AXIS2_PLACEMENT_3D ( 'NONE', #301, #322, #78 ) ;
#241 = CC_DESIGN_PERSON_AND_ORGANIZATION_ASSIGNMENT ( #73, #251, ( #26 ) ) ;
#242 = CONICAL_SURFACE ( 'NONE', #104, 3.300000000000006040, 0.7853981633974510546 ) ;
#243 = APPROVAL ( #10, 'UNSPECIFIED' ) ;
#244 = APPROVAL_PERSON_ORGANIZATION ( #17, #314, #327 ) ;
#245 = VECTOR ( 'NONE', #293, 1000.000000000000114 ) ;
#246 = AXIS2_PLACEMENT_3D ( 'NONE', #214, #254, #144 ) ;
#247 = DIRECTION ( 'NONE',  ( 3.757912086609244246E-31, 1.000000000000000000, 1.057758217059029717E-16 ) ) ;
#248 = DIRECTION ( 'NONE',  ( 0.0000000000000000000, 1.000000000000000000, 0.0000000000000000000 ) ) ;
#249 = ORIENTED_EDGE ( 'NONE', *, *, #90, .T. ) ;
#250 = EDGE_CURVE ( 'NONE', #224, #159, #325, .T. ) ;
#251 = PERSON_AND_ORGANIZATION_ROLE ( 'design_supplier' ) ;
#252 = APPROVAL_STATUS ( 'not_yet_approved' ) ;
#253 = ORIENTED_EDGE ( 'NONE', *, *, #332, .T. ) ;
#254 = DIRECTION ( 'NONE',  ( -3.491481338843133355E-15, 1.224646799147353207E-16, -1.000000000000000000 ) ) ;
#255 = EDGE_CURVE ( 'NONE', #191, #159, #258, .T. ) ;
#256 = CARTESIAN_POINT ( 'NONE',  ( 9.426999614876460059E-14, 4.099999999999996092, 27.00000000000000000 ) ) ;
#257 = AXIS2_PLACEMENT_3D ( 'NONE', #33, #277, #79 ) ;
#258 = LINE ( 'NONE', #87, #160 ) ;
#259 = LINE ( 'NONE', #218, #93 ) ;
#260 = CC_DESIGN_PERSON_AND_ORGANIZATION_ASSIGNMENT ( #85, #120, ( #273 ) ) ;
#261 = CONICAL_SURFACE ( 'NONE', #235, 4.099999999999996092, 1.029744258676649871 ) ;
#262 = CC_DESIGN_APPROVAL ( #243, ( #26 ) ) ;
#263 = DATE_TIME_ROLE ( 'creation_date' ) ;
#264 = EDGE_LOOP ( 'NONE', ( #56, #302, #304 ) ) ;
#265 = CYLINDRICAL_SURFACE ( 'NONE', #288, 4.100000000000003197 ) ;
#266 = DIRECTION ( 'NONE',  ( -3.491481338843133355E-15, 1.224646799147353207E-16, -1.000000000000000000 ) ) ;
#267 = ADVANCED_FACE ( 'NONE', ( #3 ), #119, .T. ) ;
#268 = COORDINATED_UNIVERSAL_TIME_OFFSET ( 1, 0, .AHEAD. ) ;
#269 = CIRCLE ( 'NONE', #13, 4.099999999999999645 ) ;
#270 = CARTESIAN_POINT ( 'NONE',  ( 1.841540236107991882E-13, -4.100000000000003197, 27.00000000000000000 ) ) ;
#271 = CONICAL_SURFACE ( 'NONE', #240, 4.099999999999996092, 1.029744258676649871 ) ;
#272 = DATE_TIME_ROLE ( 'classification_date' ) ;
#273 = PRODUCT ( '25291', '25291', '', ( #238 ) ) ;
#274 = ORIENTED_EDGE ( 'NONE', *, *, #255, .F. ) ;
#275 = CC_DESIGN_PERSON_AND_ORGANIZATION_ASSIGNMENT ( #234, #334, ( #227 ) ) ;
#276 = AXIS2_PLACEMENT_3D ( 'NONE', #118, #157, #103 ) ;
#277 = DIRECTION ( 'NONE',  ( -3.491481338843133355E-15, 1.224646799147353207E-16, -1.000000000000000000 ) ) ;
#278 = EDGE_LOOP ( 'NONE', ( #223, #331, #32, #137 ) ) ;
#279 = DATE_AND_TIME ( #1, #14 ) ;
#280 = DIRECTION ( 'NONE',  ( 4.275831445896958607E-31, 1.000000000000000000, 1.224646799147353207E-16 ) ) ;
#281 = DIRECTION ( 'NONE',  ( -3.491481338843133355E-15, 1.224646799147353207E-16, -1.000000000000000000 ) ) ;
#282 = APPROVAL_PERSON_ORGANIZATION ( #215, #243, #39 ) ;
#283 = ORIENTED_EDGE ( 'NONE', *, *, #19, .F. ) ;
#284 = CALENDAR_DATE ( 2021, 3, 9 ) ;
#285 = DIRECTION ( 'NONE',  ( 0.0000000000000000000, 1.000000000000000000, 0.0000000000000000000 ) ) ;
#286 = ADVANCED_FACE ( 'NONE', ( #163 ), #326, .F. ) ;
#287 = CARTESIAN_POINT ( 'NONE',  ( 9.426999614876460059E-14, -3.306546357697853733E-15, 27.00000000000000000 ) ) ;
#288 = AXIS2_PLACEMENT_3D ( 'NONE', #324, #225, #97 ) ;
#289 = ORGANIZATION ( 'UNSPECIFIED', 'UNSPECIFIED', '' ) ;
#290 = EDGE_CURVE ( 'NONE', #24, #191, #5, .T. ) ;
#291 = CARTESIAN_POINT ( 'NONE',  ( 0.0000000000000000000, 0.0000000000000000000, 0.0000000000000000000 ) ) ;
#292 = CARTESIAN_POINT ( 'NONE',  ( 9.426999614876460059E-14, 4.099999999999996092, 27.00000000000000000 ) ) ;
#293 = DIRECTION ( 'NONE',  ( 1.903218546456021928E-15, 0.8571673007021098911, 0.5150380749100583744 ) ) ;
#294 = PRODUCT_DEFINITION ( 'UNKNOWN', '', #26, #172 ) ;
#295 = DIRECTION ( 'NONE',  ( 0.0000000000000000000, 1.000000000000000000, 0.0000000000000000000 ) ) ;
#296 = CARTESIAN_POINT ( 'NONE',  ( 2.758270257686075477E-13, 3.299999999999996714, 79.00000000000000000 ) ) ;
#297 = AXIS2_PLACEMENT_3D ( 'NONE', #287, #58, #142 ) ;
#298 = CALENDAR_DATE ( 2021, 3, 9 ) ;
#299 = DATE_AND_TIME ( #88, #231 ) ;
#300 = EDGE_CURVE ( 'NONE', #131, #162, #122, .T. ) ;
#301 = CARTESIAN_POINT ( 'NONE',  ( 8.601363918179971564E-15, -3.016952338685805082E-16, 2.463528538013021407 ) ) ;
#302 = ORIENTED_EDGE ( 'NONE', *, *, #28, .T. ) ;
#303 = CARTESIAN_POINT ( 'NONE',  ( 8.601363918179971564E-15, -3.016952338685805082E-16, 2.463528538013021407 ) ) ;
#304 = ORIENTED_EDGE ( 'NONE', *, *, #307, .T. ) ;
#305 = CLOSED_SHELL ( 'NONE', ( #203, #169, #286, #201, #197, #100 ) ) ;
#306 = VECTOR ( 'NONE', #222, 1000.000000000000000 ) ;
#307 = EDGE_CURVE ( 'NONE', #313, #31, #166, .T. ) ;
#308 = EDGE_CURVE ( 'NONE', #159, #224, #143, .T. ) ;
#309 = CARTESIAN_POINT ( 'NONE',  ( 0.0000000000000000000, 0.0000000000000000000, 0.0000000000000000000 ) ) ;
#310 = CIRCLE ( 'NONE', #155, 4.100000000000005862 ) ;
#311 = AXIS2_PLACEMENT_3D ( 'NONE', #309, #177, #115 ) ;
#312 = CARTESIAN_POINT ( 'NONE',  ( 2.730338406975330915E-13, 4.099999999999996092, 78.20000000000000284 ) ) ;
#313 = VERTEX_POINT ( 'NONE', #195 ) ;
#314 = APPROVAL ( #252, 'UNSPECIFIED' ) ;
#315 =( NAMED_UNIT ( * ) SI_UNIT ( $, .STERADIAN. ) SOLID_ANGLE_UNIT ( ) );
#316 = DIRECTION ( 'NONE',  ( 3.491481338843133355E-15, -1.224646799147353207E-16, 1.000000000000000000 ) ) ;
#317 = AXIS2_PLACEMENT_3D ( 'NONE', #206, #189, #16 ) ;
#318 = CARTESIAN_POINT ( 'NONE',  ( 9.426999614876460059E-14, -3.306546357697853733E-15, 27.00000000000000000 ) ) ;
#319 = CARTESIAN_POINT ( 'NONE',  ( 2.762311592123261156E-13, -3.300000000000015810, 79.00000000000000000 ) ) ;
#320 = CARTESIAN_POINT ( 'NONE',  ( 2.748835525487547715E-13, -3.300000000000015810, 79.00000000000000000 ) ) ;
#321 = PLANE ( 'NONE',  #44 ) ;
#322 = DIRECTION ( 'NONE',  ( 3.491481338843133355E-15, -1.224646799147353207E-16, 1.000000000000000000 ) ) ;
#323 = EDGE_LOOP ( 'NONE', ( #283, #171, #253, #165 ) ) ;
#324 = CARTESIAN_POINT ( 'NONE',  ( 0.0000000000000000000, 0.0000000000000000000, 0.0000000000000000000 ) ) ;
#325 = CIRCLE ( 'NONE', #297, 4.099999999999999645 ) ;
#326 = PLANE ( 'NONE',  #317 ) ;
#327 = APPROVAL_ROLE ( '' ) ;
#328 = VERTEX_POINT ( 'NONE', #4 ) ;
#329 = LINE ( 'NONE', #77, #245 ) ;
#330 = EDGE_LOOP ( 'NONE', ( #108, #134 ) ) ;
#331 = ORIENTED_EDGE ( 'NONE', *, *, #140, .T. ) ;
#332 = EDGE_CURVE ( 'NONE', #131, #31, #127, .T. ) ;
#333 = DIRECTION ( 'NONE',  ( -3.491481338843133355E-15, 1.224646799147353207E-16, -1.000000000000000000 ) ) ;
#334 = PERSON_AND_ORGANIZATION_ROLE ( 'classification_officer' ) ;
#335 = ORIENTED_EDGE ( 'NONE', *, *, #23, .T. ) ;
#336 = FACE_OUTER_BOUND ( 'NONE', #323, .T. ) ;
#337 = EDGE_LOOP ( 'NONE', ( #199, #167, #71, #49 ) ) ;
ENDSEC;
END-ISO-10303-21;
