ISO-10303-21;
HEADER;
FILE_DESCRIPTION (( 'STEP AP203' ),
    '1' );
FILE_NAME ('252.step',
    '2021-09-03T07:21:32',
    ( '' ),
    ( '' ),
    'SwSTEP 2.0',
    'SolidWorks 2019',
    '' );
FILE_SCHEMA (( 'CONFIG_CONTROL_DESIGN' ));
ENDSEC;

DATA;
#1 = CALENDAR_DATE ( 2021, 3, 9 ) ;
#2 = EDGE_CURVE ( 'NONE', #303, #332, #325, .T. ) ;
#3 = CARTESIAN_POINT ( 'NONE',  ( 1.043952920314096810E-13, 0.3999999999999964140, 29.89999999999999858 ) ) ;
#4 = PERSON_AND_ORGANIZATION ( #105, #292 ) ;
#5 = SHAPE_DEFINITION_REPRESENTATION ( #47, #168 ) ;
#6 = AXIS2_PLACEMENT_3D ( 'NONE', #189, #85, #337 ) ;
#7 = ORIENTED_EDGE ( 'NONE', *, *, #139, .T. ) ;
#8 = PRODUCT_DEFINITION_FORMATION_WITH_SPECIFIED_SOURCE ( 'ANY', '', #74, .NOT_KNOWN. ) ;
#9 = DIRECTION ( 'NONE',  ( 0.0000000000000000000, 1.000000000000000000, 0.0000000000000000000 ) ) ;
#10 = FACE_OUTER_BOUND ( 'NONE', #249, .T. ) ;
#11 = DIRECTION ( 'NONE',  ( -3.491481338843133355E-15, 1.224646799147353207E-16, -1.000000000000000000 ) ) ;
#12 = DATE_AND_TIME ( #277, #107 ) ;
#13 = DIRECTION ( 'NONE',  ( -3.491481338843133355E-15, 1.224646799147353207E-16, -1.000000000000000000 ) ) ;
#14 = VECTOR ( 'NONE', #54, 1000.000000000000000 ) ;
#15 = PRODUCT_DEFINITION ( 'UNKNOWN', '', #8, #143 ) ;
#16 = DIRECTION ( 'NONE',  ( -3.491481338843133355E-15, 1.224646799147353207E-16, -1.000000000000000000 ) ) ;
#17 = CIRCLE ( 'NONE', #257, 0.3999999999999964140 ) ;
#18 = CARTESIAN_POINT ( 'NONE',  ( 2.444036937190193349E-14, 0.3999999999999964140, 7.000000000000000000 ) ) ;
#19 = DIRECTION ( 'NONE',  ( -2.468850131082257455E-15, 0.7071067811865497932, -0.7071067811865453523 ) ) ;
#20 = UNCERTAINTY_MEASURE_WITH_UNIT (LENGTH_MEASURE( 1.000000000000000082E-05 ), #24, 'distance_accuracy_value', 'NONE');
#21 = PERSON_AND_ORGANIZATION_ROLE ( 'design_owner' ) ;
#22 = CIRCLE ( 'NONE', #159, 0.4000000000000000777 ) ;
#23 = CC_DESIGN_APPROVAL ( #242, ( #43 ) ) ;
#24 =( LENGTH_UNIT ( ) NAMED_UNIT ( * ) SI_UNIT ( .MILLI., .METRE. ) );
#25 = EDGE_CURVE ( 'NONE', #332, #76, #55, .T. ) ;
#26 = APPROVAL_STATUS ( 'not_yet_approved' ) ;
#27 = DIRECTION ( 'NONE',  ( -3.491481338843133355E-15, 1.224646799147353207E-16, -1.000000000000000000 ) ) ;
#28 = ORIENTED_EDGE ( 'NONE', *, *, #326, .T. ) ;
#29 = EDGE_CURVE ( 'NONE', #117, #303, #268, .T. ) ;
#30 = EDGE_LOOP ( 'NONE', ( #208, #259, #295 ) ) ;
#31 = DIRECTION ( 'NONE',  ( 4.275831445896958607E-31, 1.000000000000000000, 1.224646799147353207E-16 ) ) ;
#32 = ORIENTED_EDGE ( 'NONE', *, *, #285, .T. ) ;
#33 = ORIENTED_EDGE ( 'NONE', *, *, #29, .T. ) ;
#34 = MECHANICAL_CONTEXT ( 'NONE', #308, 'mechanical' ) ;
#35 = AXIS2_PLACEMENT_3D ( 'NONE', #63, #16, #315 ) ;
#36 = DIRECTION ( 'NONE',  ( 0.0000000000000000000, 1.000000000000000000, 0.0000000000000000000 ) ) ;
#37 = CARTESIAN_POINT ( 'NONE',  ( 1.047444401652940007E-13, 0.2999999999999963807, 30.00000000000000000 ) ) ;
#38 = PERSON_AND_ORGANIZATION_ROLE ( 'classification_officer' ) ;
#39 = DIRECTION ( 'NONE',  ( -4.275831445896958607E-31, -1.000000000000000000, -1.224646799147353207E-16 ) ) ;
#40 = DIRECTION ( 'NONE',  ( 4.814824860968132547E-31, 1.000000000000000000, 1.355252715606892622E-16 ) ) ;
#41 = EDGE_CURVE ( 'NONE', #164, #62, #58, .T. ) ;
#42 = DIRECTION ( 'NONE',  ( -3.491481338843133355E-15, 1.224646799147353207E-16, -1.000000000000000000 ) ) ;
#43 = SECURITY_CLASSIFICATION ( '', '', #183 ) ;
#44 = CARTESIAN_POINT ( 'NONE',  ( 1.710332578358769692E-31, 0.3999999999999968026, 4.898587196589373632E-17 ) ) ;
#45 = PERSON_AND_ORGANIZATION ( #105, #292 ) ;
#46 = CYLINDRICAL_SURFACE ( 'NONE', #99, 0.3999999999999986899 ) ;
#47 = PRODUCT_DEFINITION_SHAPE ( 'NONE', 'NONE',  #15 ) ;
#48 = DIRECTION ( 'NONE',  ( 4.814824860968132547E-31, 1.000000000000000000, 1.355252715606892622E-16 ) ) ;
#49 = CARTESIAN_POINT ( 'NONE',  ( 2.444036937190193349E-14, -8.572527594031473190E-16, 7.000000000000000000 ) ) ;
#50 = AXIS2_PLACEMENT_3D ( 'NONE', #209, #94, #278 ) ;
#51 = EDGE_LOOP ( 'NONE', ( #232, #32, #136, #287 ) ) ;
#52 = CC_DESIGN_DATE_AND_TIME_ASSIGNMENT ( #90, #129, ( #15 ) ) ;
#53 = ORIENTED_EDGE ( 'NONE', *, *, #210, .F. ) ;
#54 = DIRECTION ( 'NONE',  ( -3.491481338843133355E-15, 1.224646799147353207E-16, -1.000000000000000000 ) ) ;
#55 = CIRCLE ( 'NONE', #6, 0.3999999999999972466 ) ;
#56 = COORDINATED_UNIVERSAL_TIME_OFFSET ( 1, 0, .AHEAD. ) ;
#57 = LOCAL_TIME ( 9, 21, 32.00000000000000000, #166 ) ;
#58 = LINE ( 'NONE', #165, #301 ) ;
#59 = CARTESIAN_POINT ( 'NONE',  ( 1.047444401652940007E-13, 2.249639673992731674E-33, 30.00000000000000000 ) ) ;
#60 = APPROVAL_STATUS ( 'not_yet_approved' ) ;
#61 = CIRCLE ( 'NONE', #195, 0.3999999999999964140 ) ;
#62 = VERTEX_POINT ( 'NONE', #245 ) ;
#63 = CARTESIAN_POINT ( 'NONE',  ( 2.444036937190193349E-14, -8.572527594031473190E-16, 7.000000000000000000 ) ) ;
#64 = ORIENTED_EDGE ( 'NONE', *, *, #110, .T. ) ;
#65 =( NAMED_UNIT ( * ) PLANE_ANGLE_UNIT ( ) SI_UNIT ( $, .RADIAN. ) );
#66 = LINE ( 'NONE', #328, #170 ) ;
#67 = AXIS2_PLACEMENT_3D ( 'NONE', #103, #154, #243 ) ;
#68 = ORIENTED_EDGE ( 'NONE', *, *, #2, .F. ) ;
#69 = CC_DESIGN_SECURITY_CLASSIFICATION ( #43, ( #8 ) ) ;
#70 = DIRECTION ( 'NONE',  ( 1.000000000000000000, 0.0000000000000000000, 0.0000000000000000000 ) ) ;
#71 = CARTESIAN_POINT ( 'NONE',  ( 1.047444401652940007E-13, -3.673940397442059178E-15, 30.00000000000000000 ) ) ;
#72 = COORDINATED_UNIVERSAL_TIME_OFFSET ( 1, 0, .AHEAD. ) ;
#73 = APPLICATION_PROTOCOL_DEFINITION ( 'international standard', 'config_control_design', 1994, #308 ) ;
#74 = PRODUCT ( '252', '252', '', ( #34 ) ) ;
#75 = PERSON_AND_ORGANIZATION ( #105, #292 ) ;
#76 = VERTEX_POINT ( 'NONE', #171 ) ;
#77 = VECTOR ( 'NONE', #19, 1000.000000000000114 ) ;
#78 =( GEOMETRIC_REPRESENTATION_CONTEXT ( 3 ) GLOBAL_UNCERTAINTY_ASSIGNED_CONTEXT ( ( #20 ) ) GLOBAL_UNIT_ASSIGNED_CONTEXT ( ( #24, #65, #179 ) ) REPRESENTATION_CONTEXT ( 'NONE', 'WORKASPACE' ) );
#79 = DIRECTION ( 'NONE',  ( 1.903218546456022717E-15, 0.8571673007021097801, 0.5150380749100585964 ) ) ;
#80 = CARTESIAN_POINT ( 'NONE',  ( 1.047444401652940007E-13, 0.2999999999999963807, 30.00000000000000000 ) ) ;
#81 = CC_DESIGN_PERSON_AND_ORGANIZATION_ASSIGNMENT ( #271, #21, ( #74 ) ) ;
#82 = CARTESIAN_POINT ( 'NONE',  ( 1.043952920314096810E-13, -3.661693929450586610E-15, 29.89999999999999858 ) ) ;
#83 = ORIENTED_EDGE ( 'NONE', *, *, #326, .F. ) ;
#84 = ORIENTED_EDGE ( 'NONE', *, *, #128, .F. ) ;
#85 = DIRECTION ( 'NONE',  ( -3.491481338843133355E-15, 1.224646799147353207E-16, -1.000000000000000000 ) ) ;
#86 = ORIENTED_EDGE ( 'NONE', *, *, #41, .T. ) ;
#87 = AXIS2_PLACEMENT_3D ( 'NONE', #49, #13, #184 ) ;
#88 = ORIENTED_EDGE ( 'NONE', *, *, #240, .T. ) ;
#89 = ORIENTED_EDGE ( 'NONE', *, *, #29, .F. ) ;
#90 = DATE_AND_TIME ( #201, #206 ) ;
#91 = CARTESIAN_POINT ( 'NONE',  ( 1.046127287363220082E-13, -0.3000000000000037637, 30.00000000000000000 ) ) ;
#92 = PERSON_AND_ORGANIZATION ( #105, #292 ) ;
#93 = CC_DESIGN_PERSON_AND_ORGANIZATION_ASSIGNMENT ( #92, #294, ( #8 ) ) ;
#94 = DIRECTION ( 'NONE',  ( -3.491481338843133355E-15, 1.224646799147353207E-16, -1.000000000000000000 ) ) ;
#95 = DATE_AND_TIME ( #1, #238 ) ;
#96 = ORIENTED_EDGE ( 'NONE', *, *, #309, .T. ) ;
#97 = DIRECTION ( 'NONE',  ( 0.0000000000000000000, 1.000000000000000000, 0.0000000000000000000 ) ) ;
#98 = FACE_OUTER_BOUND ( 'NONE', #256, .T. ) ;
#99 = AXIS2_PLACEMENT_3D ( 'NONE', #321, #262, #220 ) ;
#100 = DIRECTION ( 'NONE',  ( -4.814824860968132547E-31, -1.000000000000000000, -1.355252715606892622E-16 ) ) ;
#101 = ADVANCED_FACE ( 'NONE', ( #197 ), #291, .T. ) ;
#102 = CARTESIAN_POINT ( 'NONE',  ( 8.391574554321857073E-16, -2.943368135303202073E-17, 0.2403442476110246029 ) ) ;
#103 = CARTESIAN_POINT ( 'NONE',  ( 1.047444401652940007E-13, -3.673940397442059178E-15, 30.00000000000000000 ) ) ;
#104 = CARTESIAN_POINT ( 'NONE',  ( 0.0000000000000000000, 0.0000000000000000000, 0.0000000000000000000 ) ) ;
#105 = PERSON ( 'UNSPECIFIED', 'UNSPECIFIED', 'UNSPECIFIED', ('UNSPECIFIED'), ('UNSPECIFIED'), ('UNSPECIFIED') ) ;
#106 = DIRECTION ( 'NONE',  ( -3.491481338843133355E-15, 1.224646799147353207E-16, -1.000000000000000000 ) ) ;
#107 = LOCAL_TIME ( 9, 21, 32.00000000000000000, #56 ) ;
#108 = DIRECTION ( 'NONE',  ( 4.275831445896958607E-31, 1.000000000000000000, 1.224646799147353207E-16 ) ) ;
#109 = ORIENTED_EDGE ( 'NONE', *, *, #153, .F. ) ;
#110 = EDGE_CURVE ( 'NONE', #327, #227, #135, .T. ) ;
#111 = ORIENTED_EDGE ( 'NONE', *, *, #153, .T. ) ;
#112 = CONICAL_SURFACE ( 'NONE', #67, 0.3000000000000000999, 0.7853981633974512766 ) ;
#113 = CYLINDRICAL_SURFACE ( 'NONE', #50, 0.3999999999999986899 ) ;
#114 = DIRECTION ( 'NONE',  ( -4.275831445896958607E-31, -1.000000000000000000, -1.224646799147353207E-16 ) ) ;
#115 = FACE_OUTER_BOUND ( 'NONE', #281, .T. ) ;
#116 = DIRECTION ( 'NONE',  ( 3.491481338843133355E-15, -1.224646799147353207E-16, 1.000000000000000000 ) ) ;
#117 = VERTEX_POINT ( 'NONE', #130 ) ;
#118 = DIRECTION ( 'NONE',  ( -3.491481338843133355E-15, 1.224646799147353207E-16, -1.000000000000000000 ) ) ;
#119 = COORDINATED_UNIVERSAL_TIME_OFFSET ( 1, 0, .AHEAD. ) ;
#120 = PERSON_AND_ORGANIZATION ( #105, #292 ) ;
#121 = ADVANCED_FACE ( 'NONE', ( #312 ), #199, .T. ) ;
#122 = VECTOR ( 'NONE', #27, 1000.000000000000000 ) ;
#123 = APPROVAL_PERSON_ORGANIZATION ( #45, #242, #212 ) ;
#124 = ORIENTED_EDGE ( 'NONE', *, *, #300, .T. ) ;
#125 = CALENDAR_DATE ( 2021, 3, 9 ) ;
#126 = CARTESIAN_POINT ( 'NONE',  ( 8.881433273980795299E-16, 0.3999999999999964140, 0.2403442476110246584 ) ) ;
#127 = DATE_AND_TIME ( #125, #213 ) ;
#128 = EDGE_CURVE ( 'NONE', #164, #227, #66, .T. ) ;
#129 = DATE_TIME_ROLE ( 'creation_date' ) ;
#130 = CARTESIAN_POINT ( 'NONE',  ( 6.446681657362141353E-14, -0.4000000000000037415, 29.89999999999999858 ) ) ;
#131 = VECTOR ( 'NONE', #244, 1000.000000000000114 ) ;
#132 = CIRCLE ( 'NONE', #217, 0.3999999999999972466 ) ;
#133 = ORIENTED_EDGE ( 'NONE', *, *, #304, .T. ) ;
#134 = CC_DESIGN_PERSON_AND_ORGANIZATION_ASSIGNMENT ( #4, #264, ( #8 ) ) ;
#135 = LINE ( 'NONE', #44, #182 ) ;
#136 = ORIENTED_EDGE ( 'NONE', *, *, #240, .F. ) ;
#137 = CIRCLE ( 'NONE', #151, 0.3000000000000000999 ) ;
#138 = CARTESIAN_POINT ( 'NONE',  ( 8.391574554321857073E-16, -2.943368135303202073E-17, 0.2403442476110246029 ) ) ;
#139 = EDGE_CURVE ( 'NONE', #76, #332, #275, .T. ) ;
#140 = EDGE_LOOP ( 'NONE', ( #84, #86, #111 ) ) ;
#141 = AXIS2_PLACEMENT_3D ( 'NONE', #329, #276, #247 ) ;
#142 = PERSON_AND_ORGANIZATION_ROLE ( 'creator' ) ;
#143 = DESIGN_CONTEXT ( 'detailed design', #233, 'design' ) ;
#144 = AXIS2_PLACEMENT_3D ( 'NONE', #289, #178, #108 ) ;
#145 = CARTESIAN_POINT ( 'NONE',  ( 1.047444401652940007E-13, -3.673940397442059178E-15, 30.00000000000000000 ) ) ;
#146 = ORIENTED_EDGE ( 'NONE', *, *, #25, .T. ) ;
#147 = DATE_AND_TIME ( #228, #57 ) ;
#148 = ADVANCED_FACE ( 'NONE', ( #288 ), #311, .T. ) ;
#149 = PERSON_AND_ORGANIZATION ( #105, #292 ) ;
#150 = DIRECTION ( 'NONE',  ( 0.0000000000000000000, 1.000000000000000000, 0.0000000000000000000 ) ) ;
#151 = AXIS2_PLACEMENT_3D ( 'NONE', #156, #42, #97 ) ;
#152 = APPROVAL_STATUS ( 'not_yet_approved' ) ;
#153 = EDGE_CURVE ( 'NONE', #62, #227, #17, .T. ) ;
#154 = DIRECTION ( 'NONE',  ( -3.491481338843133355E-15, 1.224646799147353207E-16, -1.000000000000000000 ) ) ;
#155 = DIRECTION ( 'NONE',  ( 4.275831445896958607E-31, 1.000000000000000000, 1.224646799147353207E-16 ) ) ;
#156 = CARTESIAN_POINT ( 'NONE',  ( 1.047444401652940007E-13, -3.673940397442059178E-15, 30.00000000000000000 ) ) ;
#157 = CARTESIAN_POINT ( 'NONE',  ( 8.391574554321857073E-16, -2.943368135303202073E-17, 0.2403442476110246029 ) ) ;
#158 = CC_DESIGN_PERSON_AND_ORGANIZATION_ASSIGNMENT ( #75, #142, ( #15 ) ) ;
#159 = AXIS2_PLACEMENT_3D ( 'NONE', #82, #11, #310 ) ;
#160 = AXIS2_PLACEMENT_3D ( 'NONE', #104, #255, #70 ) ;
#161 = PLANE ( 'NONE',  #187 ) ;
#162 = LINE ( 'NONE', #323, #241 ) ;
#163 = APPROVAL_ROLE ( '' ) ;
#164 = VERTEX_POINT ( 'NONE', #313 ) ;
#165 = CARTESIAN_POINT ( 'NONE',  ( 8.391574554321855101E-16, -0.3999999999999964695, 0.2403442476110245474 ) ) ;
#166 = COORDINATED_UNIVERSAL_TIME_OFFSET ( 1, 0, .AHEAD. ) ;
#167 = ORIENTED_EDGE ( 'NONE', *, *, #304, .F. ) ;
#168 = ADVANCED_BREP_SHAPE_REPRESENTATION ( '252', ( #180, #181, #160 ), #78 ) ;
#169 = CARTESIAN_POINT ( 'NONE',  ( 2.444036937190193349E-14, 2.999519565323681346E-33, 7.000000000000000000 ) ) ;
#170 = VECTOR ( 'NONE', #79, 999.9999999999998863 ) ;
#171 = CARTESIAN_POINT ( 'NONE',  ( 6.446681657362162810E-14, -0.3999999999999981348, 7.000000000000000000 ) ) ;
#172 = CC_DESIGN_APPROVAL ( #293, ( #8 ) ) ;
#173 = ADVANCED_FACE ( 'NONE', ( #274 ), #113, .T. ) ;
#174 = EDGE_LOOP ( 'NONE', ( #146, #7 ) ) ;
#175 = CARTESIAN_POINT ( 'NONE',  ( 2.444036937190193349E-14, -8.572527594031473190E-16, 7.000000000000000000 ) ) ;
#176 = ADVANCED_FACE ( 'NONE', ( #10 ), #214, .T. ) ;
#177 = ORIENTED_EDGE ( 'NONE', *, *, #110, .F. ) ;
#178 = DIRECTION ( 'NONE',  ( -3.491481338843133355E-15, 1.224646799147353207E-16, -1.000000000000000000 ) ) ;
#179 =( NAMED_UNIT ( * ) SI_UNIT ( $, .STERADIAN. ) SOLID_ANGLE_UNIT ( ) );
#180 = MANIFOLD_SOLID_BREP ( 'Corps-Déplacer/Copier1[1]', #221 ) ;
#181 = MANIFOLD_SOLID_BREP ( 'Corps-Déplacer/Copier1[2]', #205 ) ;
#182 = VECTOR ( 'NONE', #317, 1000.000000000000000 ) ;
#183 = SECURITY_CLASSIFICATION_LEVEL ( 'unclassified' ) ;
#184 = DIRECTION ( 'NONE',  ( 0.0000000000000000000, 1.000000000000000000, 0.0000000000000000000 ) ) ;
#185 = CARTESIAN_POINT ( 'NONE',  ( 2.444036937190193349E-14, 0.3999999999999964140, 7.000000000000000000 ) ) ;
#186 = EDGE_CURVE ( 'NONE', #235, #62, #297, .T. ) ;
#187 = AXIS2_PLACEMENT_3D ( 'NONE', #207, #314, #39 ) ;
#188 = CARTESIAN_POINT ( 'NONE',  ( 1.710332578358777794E-31, 0.3999999999999986899, 4.898587196589396435E-17 ) ) ;
#189 = CARTESIAN_POINT ( 'NONE',  ( 2.444036937190193349E-14, -8.572527594031473190E-16, 7.000000000000000000 ) ) ;
#190 = APPROVAL_DATE_TIME ( #147, #293 ) ;
#191 = PLANE ( 'NONE',  #331 ) ;
#192 = DIRECTION ( 'NONE',  ( 1.798245827342160317E-15, -0.8571673007021098911, 0.5150380749100582634 ) ) ;
#193 = EDGE_LOOP ( 'NONE', ( #302, #133, #124, #89 ) ) ;
#194 = ADVANCED_FACE ( 'NONE', ( #330 ), #161, .F. ) ;
#195 = AXIS2_PLACEMENT_3D ( 'NONE', #102, #296, #40 ) ;
#196 = CARTESIAN_POINT ( 'NONE',  ( 0.0000000000000000000, 0.0000000000000000000, 0.0000000000000000000 ) ) ;
#197 = FACE_OUTER_BOUND ( 'NONE', #193, .T. ) ;
#198 = EDGE_CURVE ( 'NONE', #229, #319, #137, .T. ) ;
#199 = CONICAL_SURFACE ( 'NONE', #226, 0.3999999999999964140, 1.029744258676649649 ) ;
#200 = EDGE_LOOP ( 'NONE', ( #83, #33, #266, #239 ) ) ;
#201 = CALENDAR_DATE ( 2021, 3, 9 ) ;
#202 = ADVANCED_FACE ( 'NONE', ( #286 ), #112, .T. ) ;
#203 = DIRECTION ( 'NONE',  ( -3.491481338843133355E-15, 1.224646799147353207E-16, -1.000000000000000000 ) ) ;
#204 = PERSON_AND_ORGANIZATION ( #105, #292 ) ;
#205 = CLOSED_SHELL ( 'NONE', ( #246, #121, #148, #176, #215 ) ) ;
#206 = LOCAL_TIME ( 9, 21, 32.00000000000000000, #119 ) ;
#207 = CARTESIAN_POINT ( 'NONE',  ( 2.444036937190193349E-14, 2.999519565323681346E-33, 7.000000000000000000 ) ) ;
#208 = ORIENTED_EDGE ( 'NONE', *, *, #41, .F. ) ;
#209 = CARTESIAN_POINT ( 'NONE',  ( 0.0000000000000000000, 0.0000000000000000000, 0.0000000000000000000 ) ) ;
#210 = EDGE_CURVE ( 'NONE', #235, #327, #282, .T. ) ;
#211 = ORIENTED_EDGE ( 'NONE', *, *, #309, .F. ) ;
#212 = APPROVAL_ROLE ( '' ) ;
#213 = LOCAL_TIME ( 9, 21, 32.00000000000000000, #267 ) ;
#214 = CYLINDRICAL_SURFACE ( 'NONE', #320, 0.3999999999999968026 ) ;
#215 = ADVANCED_FACE ( 'NONE', ( #290 ), #191, .T. ) ;
#216 = DIRECTION ( 'NONE',  ( -4.814824860968132547E-31, -1.000000000000000000, -1.355252715606892622E-16 ) ) ;
#217 = AXIS2_PLACEMENT_3D ( 'NONE', #175, #305, #150 ) ;
#218 = CARTESIAN_POINT ( 'NONE',  ( 8.391574554321857073E-16, -2.943368135303202073E-17, 0.2403442476110246029 ) ) ;
#219 = ORIENTED_EDGE ( 'NONE', *, *, #186, .T. ) ;
#220 = DIRECTION ( 'NONE',  ( 4.275831445896958607E-31, 1.000000000000000000, 1.224646799147353207E-16 ) ) ;
#221 = CLOSED_SHELL ( 'NONE', ( #202, #253, #194, #173, #101, #316 ) ) ;
#222 = LINE ( 'NONE', #265, #131 ) ;
#223 = DIRECTION ( 'NONE',  ( -3.491481338843133355E-15, 1.224646799147353207E-16, -1.000000000000000000 ) ) ;
#224 = ORIENTED_EDGE ( 'NONE', *, *, #210, .T. ) ;
#225 = ORIENTED_EDGE ( 'NONE', *, *, #260, .F. ) ;
#226 = AXIS2_PLACEMENT_3D ( 'NONE', #138, #254, #216 ) ;
#227 = VERTEX_POINT ( 'NONE', #126 ) ;
#228 = CALENDAR_DATE ( 2021, 3, 9 ) ;
#229 = VERTEX_POINT ( 'NONE', #37 ) ;
#230 = CIRCLE ( 'NONE', #251, 0.3000000000000000999 ) ;
#231 = CC_DESIGN_DATE_AND_TIME_ASSIGNMENT ( #12, #258, ( #43 ) ) ;
#232 = ORIENTED_EDGE ( 'NONE', *, *, #198, .T. ) ;
#233 = APPLICATION_CONTEXT ( 'configuration controlled 3d designs of mechanical parts and assemblies' ) ;
#234 = ORIENTED_EDGE ( 'NONE', *, *, #198, .F. ) ;
#235 = VERTEX_POINT ( 'NONE', #270 ) ;
#236 = CC_DESIGN_PERSON_AND_ORGANIZATION_ASSIGNMENT ( #204, #38, ( #43 ) ) ;
#237 = AXIS2_PLACEMENT_3D ( 'NONE', #218, #116, #100 ) ;
#238 = LOCAL_TIME ( 9, 21, 32.00000000000000000, #72 ) ;
#239 = ORIENTED_EDGE ( 'NONE', *, *, #139, .F. ) ;
#240 = EDGE_CURVE ( 'NONE', #303, #117, #22, .T. ) ;
#241 = VECTOR ( 'NONE', #203, 1000.000000000000000 ) ;
#242 = APPROVAL ( #152, 'UNSPECIFIED' ) ;
#243 = DIRECTION ( 'NONE',  ( 0.0000000000000000000, 1.000000000000000000, 0.0000000000000000000 ) ) ;
#244 = DIRECTION ( 'NONE',  ( -2.382254525458708792E-15, -0.7071067811865495711, -0.7071067811865455743 ) ) ;
#245 = CARTESIAN_POINT ( 'NONE',  ( 8.391574554321855101E-16, -0.3999999999999964695, 0.2403442476110245474 ) ) ;
#246 = ADVANCED_FACE ( 'NONE', ( #98 ), #263, .T. ) ;
#247 = DIRECTION ( 'NONE',  ( 0.0000000000000000000, 1.000000000000000000, 0.0000000000000000000 ) ) ;
#248 = ORIENTED_EDGE ( 'NONE', *, *, #25, .F. ) ;
#249 = EDGE_LOOP ( 'NONE', ( #324, #224, #64, #109 ) ) ;
#250 = DIRECTION ( 'NONE',  ( 3.491481338843133355E-15, -1.224646799147353207E-16, 1.000000000000000000 ) ) ;
#251 = AXIS2_PLACEMENT_3D ( 'NONE', #145, #118, #9 ) ;
#252 = DIRECTION ( 'NONE',  ( -3.491481338843133355E-15, 1.224646799147353207E-16, -1.000000000000000000 ) ) ;
#253 = ADVANCED_FACE ( 'NONE', ( #318 ), #46, .T. ) ;
#254 = DIRECTION ( 'NONE',  ( 3.491481338843133355E-15, -1.224646799147353207E-16, 1.000000000000000000 ) ) ;
#255 = DIRECTION ( 'NONE',  ( 0.0000000000000000000, 0.0000000000000000000, 1.000000000000000000 ) ) ;
#256 = EDGE_LOOP ( 'NONE', ( #96, #219, #225, #177 ) ) ;
#257 = AXIS2_PLACEMENT_3D ( 'NONE', #157, #106, #48 ) ;
#258 = DATE_TIME_ROLE ( 'classification_date' ) ;
#259 = ORIENTED_EDGE ( 'NONE', *, *, #128, .T. ) ;
#260 = EDGE_CURVE ( 'NONE', #227, #62, #61, .T. ) ;
#261 = DIRECTION ( 'NONE',  ( -3.491481338843133355E-15, 1.224646799147353207E-16, -1.000000000000000000 ) ) ;
#262 = DIRECTION ( 'NONE',  ( -3.491481338843133355E-15, 1.224646799147353207E-16, -1.000000000000000000 ) ) ;
#263 = CYLINDRICAL_SURFACE ( 'NONE', #144, 0.3999999999999968026 ) ;
#264 = PERSON_AND_ORGANIZATION_ROLE ( 'creator' ) ;
#265 = CARTESIAN_POINT ( 'NONE',  ( 1.047811795692684136E-13, -0.3000000000000037637, 30.00000000000000000 ) ) ;
#266 = ORIENTED_EDGE ( 'NONE', *, *, #2, .T. ) ;
#267 = COORDINATED_UNIVERSAL_TIME_OFFSET ( 1, 0, .AHEAD. ) ;
#268 = CIRCLE ( 'NONE', #141, 0.4000000000000000777 ) ;
#269 = APPROVAL_PERSON_ORGANIZATION ( #149, #283, #163 ) ;
#270 = CARTESIAN_POINT ( 'NONE',  ( 1.268874928563292783E-14, -0.3999999999999981348, 7.000000000000000000 ) ) ;
#271 = PERSON_AND_ORGANIZATION ( #105, #292 ) ;
#272 = CARTESIAN_POINT ( 'NONE',  ( 4.898587196589356992E-17, -0.3999999999999968026, -4.898587196589390889E-17 ) ) ;
#273 = EDGE_LOOP ( 'NONE', ( #211, #53 ) ) ;
#274 = FACE_OUTER_BOUND ( 'NONE', #200, .T. ) ;
#275 = CIRCLE ( 'NONE', #87, 0.3999999999999972466 ) ;
#276 = DIRECTION ( 'NONE',  ( -3.491481338843133355E-15, 1.224646799147353207E-16, -1.000000000000000000 ) ) ;
#277 = CALENDAR_DATE ( 2021, 3, 9 ) ;
#278 = DIRECTION ( 'NONE',  ( 4.275831445896958607E-31, 1.000000000000000000, 1.224646799147353207E-16 ) ) ;
#279 = PLANE ( 'NONE',  #298 ) ;
#280 = APPROVAL_ROLE ( '' ) ;
#281 = EDGE_LOOP ( 'NONE', ( #234, #167 ) ) ;
#282 = CIRCLE ( 'NONE', #35, 0.3999999999999972466 ) ;
#283 = APPROVAL ( #60, 'UNSPECIFIED' ) ;
#284 = APPROVAL_DATE_TIME ( #127, #283 ) ;
#285 = EDGE_CURVE ( 'NONE', #319, #117, #222, .T. ) ;
#286 = FACE_OUTER_BOUND ( 'NONE', #51, .T. ) ;
#287 = ORIENTED_EDGE ( 'NONE', *, *, #300, .F. ) ;
#288 = FACE_OUTER_BOUND ( 'NONE', #140, .T. ) ;
#289 = CARTESIAN_POINT ( 'NONE',  ( 0.0000000000000000000, 0.0000000000000000000, 0.0000000000000000000 ) ) ;
#290 = FACE_OUTER_BOUND ( 'NONE', #273, .T. ) ;
#291 = CONICAL_SURFACE ( 'NONE', #307, 0.3000000000000000999, 0.7853981633974512766 ) ;
#292 = ORGANIZATION ( 'UNSPECIFIED', 'UNSPECIFIED', '' ) ;
#293 = APPROVAL ( #26, 'UNSPECIFIED' ) ;
#294 = PERSON_AND_ORGANIZATION_ROLE ( 'design_supplier' ) ;
#295 = ORIENTED_EDGE ( 'NONE', *, *, #260, .T. ) ;
#296 = DIRECTION ( 'NONE',  ( -3.491481338843133355E-15, 1.224646799147353207E-16, -1.000000000000000000 ) ) ;
#297 = LINE ( 'NONE', #272, #14 ) ;
#298 = AXIS2_PLACEMENT_3D ( 'NONE', #59, #252, #31 ) ;
#299 = PRODUCT_RELATED_PRODUCT_CATEGORY ( 'detail', '', ( #74 ) ) ;
#300 = EDGE_CURVE ( 'NONE', #229, #303, #335, .T. ) ;
#301 = VECTOR ( 'NONE', #192, 1000.000000000000000 ) ;
#302 = ORIENTED_EDGE ( 'NONE', *, *, #285, .F. ) ;
#303 = VERTEX_POINT ( 'NONE', #3 ) ;
#304 = EDGE_CURVE ( 'NONE', #319, #229, #230, .T. ) ;
#305 = DIRECTION ( 'NONE',  ( -3.491481338843133355E-15, 1.224646799147353207E-16, -1.000000000000000000 ) ) ;
#306 = APPROVAL_DATE_TIME ( #95, #242 ) ;
#307 = AXIS2_PLACEMENT_3D ( 'NONE', #71, #261, #36 ) ;
#308 = APPLICATION_CONTEXT ( 'configuration controlled 3d designs of mechanical parts and assemblies' ) ;
#309 = EDGE_CURVE ( 'NONE', #327, #235, #132, .T. ) ;
#310 = DIRECTION ( 'NONE',  ( 0.0000000000000000000, 1.000000000000000000, 0.0000000000000000000 ) ) ;
#311 = CONICAL_SURFACE ( 'NONE', #237, 0.3999999999999964140, 1.029744258676649649 ) ;
#312 = FACE_OUTER_BOUND ( 'NONE', #30, .T. ) ;
#313 = CARTESIAN_POINT ( 'NONE',  ( 0.0000000000000000000, 0.0000000000000000000, 0.0000000000000000000 ) ) ;
#314 = DIRECTION ( 'NONE',  ( 3.491481338843133355E-15, -1.224646799147353207E-16, 1.000000000000000000 ) ) ;
#315 = DIRECTION ( 'NONE',  ( 0.0000000000000000000, 1.000000000000000000, 0.0000000000000000000 ) ) ;
#316 = ADVANCED_FACE ( 'NONE', ( #115 ), #279, .F. ) ;
#317 = DIRECTION ( 'NONE',  ( -3.491481338843133355E-15, 1.224646799147353207E-16, -1.000000000000000000 ) ) ;
#318 = FACE_OUTER_BOUND ( 'NONE', #334, .T. ) ;
#319 = VERTEX_POINT ( 'NONE', #91 ) ;
#320 = AXIS2_PLACEMENT_3D ( 'NONE', #196, #223, #155 ) ;
#321 = CARTESIAN_POINT ( 'NONE',  ( 0.0000000000000000000, 0.0000000000000000000, 0.0000000000000000000 ) ) ;
#322 = CC_DESIGN_APPROVAL ( #283, ( #15 ) ) ;
#323 = CARTESIAN_POINT ( 'NONE',  ( 4.898587196589379795E-17, -0.3999999999999986899, -4.898587196589413075E-17 ) ) ;
#324 = ORIENTED_EDGE ( 'NONE', *, *, #186, .F. ) ;
#325 = LINE ( 'NONE', #188, #122 ) ;
#326 = EDGE_CURVE ( 'NONE', #117, #76, #162, .T. ) ;
#327 = VERTEX_POINT ( 'NONE', #185 ) ;
#328 = CARTESIAN_POINT ( 'NONE',  ( 8.881433273980795299E-16, 0.3999999999999964140, 0.2403442476110246584 ) ) ;
#329 = CARTESIAN_POINT ( 'NONE',  ( 1.043952920314096810E-13, -3.661693929450586610E-15, 29.89999999999999858 ) ) ;
#330 = FACE_OUTER_BOUND ( 'NONE', #174, .T. ) ;
#331 = AXIS2_PLACEMENT_3D ( 'NONE', #169, #250, #114 ) ;
#332 = VERTEX_POINT ( 'NONE', #18 ) ;
#333 = APPLICATION_PROTOCOL_DEFINITION ( 'international standard', 'config_control_design', 1994, #233 ) ;
#334 = EDGE_LOOP ( 'NONE', ( #88, #28, #248, #68 ) ) ;
#335 = LINE ( 'NONE', #80, #77 ) ;
#336 = APPROVAL_PERSON_ORGANIZATION ( #120, #293, #280 ) ;
#337 = DIRECTION ( 'NONE',  ( 0.0000000000000000000, 1.000000000000000000, 0.0000000000000000000 ) ) ;
ENDSEC;
END-ISO-10303-21;
