ISO-10303-21;
HEADER;
FILE_DESCRIPTION (( 'STEP AP203' ),
    '1' );
FILE_NAME ('251.step',
    '2021-09-03T07:21:31',
    ( '' ),
    ( '' ),
    'SwSTEP 2.0',
    'SolidWorks 2019',
    '' );
FILE_SCHEMA (( 'CONFIG_CONTROL_DESIGN' ));
ENDSEC;

DATA;
#1 = VECTOR ( 'NONE', #196, 1000.000000000000000 ) ;
#2 = DIRECTION ( 'NONE',  ( -3.491481338843133355E-15, 1.224646799147353207E-16, -1.000000000000000000 ) ) ;
#3 = DIRECTION ( 'NONE',  ( -4.275831445896958607E-31, -1.000000000000000000, -1.224646799147353207E-16 ) ) ;
#4 = CARTESIAN_POINT ( 'NONE',  ( 7.867101144676733056E-16, -0.3749999999999964473, 0.2253227321353353518 ) ) ;
#5 = ORIENTED_EDGE ( 'NONE', *, *, #276, .T. ) ;
#6 = ADVANCED_FACE ( 'NONE', ( #176 ), #221, .T. ) ;
#7 = LINE ( 'NONE', #310, #67 ) ;
#8 = ORIENTED_EDGE ( 'NONE', *, *, #330, .T. ) ;
#9 = DIRECTION ( 'NONE',  ( 4.275831445896958607E-31, 1.000000000000000000, 1.224646799147353207E-16 ) ) ;
#10 = DIRECTION ( 'NONE',  ( -3.491481338843133355E-15, 1.224646799147353207E-16, -1.000000000000000000 ) ) ;
#11 = APPLICATION_CONTEXT ( 'configuration controlled 3d designs of mechanical parts and assemblies' ) ;
#12 = VERTEX_POINT ( 'NONE', #128 ) ;
#13 = LOCAL_TIME ( 9, 21, 31.00000000000000000, #194 ) ;
#14 = ORIENTED_EDGE ( 'NONE', *, *, #59, .F. ) ;
#15 = ORIENTED_EDGE ( 'NONE', *, *, #185, .T. ) ;
#16 = ADVANCED_FACE ( 'NONE', ( #270 ), #202, .T. ) ;
#17 = AXIS2_PLACEMENT_3D ( 'NONE', #296, #68, #226 ) ;
#18 = DIRECTION ( 'NONE',  ( 0.0000000000000000000, 0.0000000000000000000, 1.000000000000000000 ) ) ;
#19 = EDGE_CURVE ( 'NONE', #197, #91, #92, .T. ) ;
#20 = AXIS2_PLACEMENT_3D ( 'NONE', #99, #94, #42 ) ;
#21 = EDGE_CURVE ( 'NONE', #324, #308, #71, .T. ) ;
#22 = DATE_AND_TIME ( #284, #118 ) ;
#23 = DIRECTION ( 'NONE',  ( -3.491481338843133355E-15, 1.224646799147353207E-16, -1.000000000000000000 ) ) ;
#24 = DATE_AND_TIME ( #156, #184 ) ;
#25 = EDGE_LOOP ( 'NONE', ( #289, #169, #36, #295 ) ) ;
#26 = CIRCLE ( 'NONE', #178, 0.3749999999999963918 ) ;
#27 = PERSON_AND_ORGANIZATION_ROLE ( 'design_owner' ) ;
#28 = DIRECTION ( 'NONE',  ( 0.0000000000000000000, 1.000000000000000000, 0.0000000000000000000 ) ) ;
#29 = CARTESIAN_POINT ( 'NONE',  ( 1.047781179522705522E-13, -0.2750000000000036859, 30.00000000000000000 ) ) ;
#30 = VECTOR ( 'NONE', #179, 1000.000000000000000 ) ;
#31 = EDGE_CURVE ( 'NONE', #90, #164, #40, .T. ) ;
#32 = CARTESIAN_POINT ( 'NONE',  ( 4.592425496802519368E-17, -0.3749999999999967804, -4.592425496802550799E-17 ) ) ;
#33 = ORIENTED_EDGE ( 'NONE', *, *, #21, .F. ) ;
#34 = CARTESIAN_POINT ( 'NONE',  ( 1.043952920314096810E-13, 0.3749999999999963363, 29.89999999999999858 ) ) ;
#35 = FACE_OUTER_BOUND ( 'NONE', #163, .T. ) ;
#36 = ORIENTED_EDGE ( 'NONE', *, *, #218, .F. ) ;
#37 = EDGE_LOOP ( 'NONE', ( #245, #14 ) ) ;
#38 = AXIS2_PLACEMENT_3D ( 'NONE', #95, #267, #120 ) ;
#39 = ORIENTED_EDGE ( 'NONE', *, *, #198, .F. ) ;
#40 = CIRCLE ( 'NONE', #104, 0.3749999999999970579 ) ;
#41 = CARTESIAN_POINT ( 'NONE',  ( 1.047444401652940007E-13, 0.2749999999999963030, 30.00000000000000000 ) ) ;
#42 = DIRECTION ( 'NONE',  ( 0.0000000000000000000, 1.000000000000000000, 0.0000000000000000000 ) ) ;
#43 = DIRECTION ( 'NONE',  ( 4.275831445896958607E-31, 1.000000000000000000, 1.224646799147353207E-16 ) ) ;
#44 = DIRECTION ( 'NONE',  ( -3.491481338843133355E-15, 1.224646799147353207E-16, -1.000000000000000000 ) ) ;
#45 = AXIS2_PLACEMENT_3D ( 'NONE', #236, #10, #220 ) ;
#46 = ADVANCED_FACE ( 'NONE', ( #298 ), #183, .T. ) ;
#47 = ORIENTED_EDGE ( 'NONE', *, *, #286, .T. ) ;
#48 = LINE ( 'NONE', #155, #30 ) ;
#49 = COORDINATED_UNIVERSAL_TIME_OFFSET ( 1, 0, .AHEAD. ) ;
#50 = COORDINATED_UNIVERSAL_TIME_OFFSET ( 1, 0, .AHEAD. ) ;
#51 = AXIS2_PLACEMENT_3D ( 'NONE', #181, #44, #9 ) ;
#52 = DIRECTION ( 'NONE',  ( -5.135813185032678571E-31, -1.000000000000000000, -1.445602896647353215E-16 ) ) ;
#53 = PERSON ( 'UNSPECIFIED', 'UNSPECIFIED', 'UNSPECIFIED', ('UNSPECIFIED'), ('UNSPECIFIED'), ('UNSPECIFIED') ) ;
#54 = ORIENTED_EDGE ( 'NONE', *, *, #19, .T. ) ;
#55 = PERSON_AND_ORGANIZATION_ROLE ( 'design_supplier' ) ;
#56 = CARTESIAN_POINT ( 'NONE',  ( 2.094888803305880013E-14, -7.347880794884119736E-16, 6.000000000000000000 ) ) ;
#57 = ORIENTED_EDGE ( 'NONE', *, *, #201, .T. ) ;
#58 = CARTESIAN_POINT ( 'NONE',  ( 0.0000000000000000000, 0.0000000000000000000, 0.0000000000000000000 ) ) ;
#59 = EDGE_CURVE ( 'NONE', #164, #90, #191, .T. ) ;
#60 = CARTESIAN_POINT ( 'NONE',  ( 2.094888803305880013E-14, 0.3749999999999963363, 6.000000000000000000 ) ) ;
#61 = ORIENTED_EDGE ( 'NONE', *, *, #218, .T. ) ;
#62 = DIRECTION ( 'NONE',  ( 4.275831445896957731E-31, 1.000000000000000000, 1.224646799147352961E-16 ) ) ;
#63 = DIRECTION ( 'NONE',  ( 3.491481338843133355E-15, -1.224646799147353207E-16, 1.000000000000000000 ) ) ;
#64 = ORIENTED_EDGE ( 'NONE', *, *, #201, .F. ) ;
#65 = DIRECTION ( 'NONE',  ( -3.491481338843133355E-15, 1.224646799147353207E-16, -1.000000000000000000 ) ) ;
#66 = CLOSED_SHELL ( 'NONE', ( #241, #6, #251, #303, #266, #231 ) ) ;
#67 = VECTOR ( 'NONE', #188, 1000.000000000000000 ) ;
#68 = DIRECTION ( 'NONE',  ( -3.491481338843133355E-15, 1.224646799147353207E-16, -1.000000000000000000 ) ) ;
#69 = DIRECTION ( 'NONE',  ( -5.135813185032678571E-31, -1.000000000000000000, -1.445602896647353215E-16 ) ) ;
#70 = DIRECTION ( 'NONE',  ( 0.0000000000000000000, 1.000000000000000000, 0.0000000000000000000 ) ) ;
#71 = CIRCLE ( 'NONE', #215, 0.2750000000000000222 ) ;
#72 = CARTESIAN_POINT ( 'NONE',  ( 2.094888803305880013E-14, -7.347880794884119736E-16, 6.000000000000000000 ) ) ;
#73 = PLANE ( 'NONE',  #51 ) ;
#74 = ORIENTED_EDGE ( 'NONE', *, *, #330, .F. ) ;
#75 = EDGE_CURVE ( 'NONE', #90, #243, #48, .T. ) ;
#76 = PERSON_AND_ORGANIZATION_ROLE ( 'creator' ) ;
#77 = CARTESIAN_POINT ( 'NONE',  ( 7.867101144676735028E-16, -2.759407626846749709E-17, 0.2253227321353354073 ) ) ;
#78 = CALENDAR_DATE ( 2021, 3, 9 ) ;
#79 = AXIS2_PLACEMENT_3D ( 'NONE', #159, #23, #329 ) ;
#80 = PERSON_AND_ORGANIZATION ( #53, #314 ) ;
#81 = APPROVAL_ROLE ( '' ) ;
#82 = APPROVAL_STATUS ( 'not_yet_approved' ) ;
#83 = EDGE_CURVE ( 'NONE', #326, #243, #332, .T. ) ;
#84 = CARTESIAN_POINT ( 'NONE',  ( 8.326343694356989861E-16, 0.3749999999999963363, 0.2253227321353354629 ) ) ;
#85 = AXIS2_PLACEMENT_3D ( 'NONE', #72, #65, #320 ) ;
#86 = ADVANCED_BREP_SHAPE_REPRESENTATION ( '251', ( #278, #177, #143 ), #257 ) ;
#87 = DIRECTION ( 'NONE',  ( 3.491481338843133355E-15, -1.224646799147353207E-16, 1.000000000000000000 ) ) ;
#88 = CC_DESIGN_DATE_AND_TIME_ASSIGNMENT ( #24, #162, ( #306 ) ) ;
#89 = CYLINDRICAL_SURFACE ( 'NONE', #157, 0.3749999999999985567 ) ;
#90 = VERTEX_POINT ( 'NONE', #158 ) ;
#91 = VERTEX_POINT ( 'NONE', #258 ) ;
#92 = CIRCLE ( 'NONE', #300, 0.3750000000000000000 ) ;
#93 = APPROVAL_PERSON_ORGANIZATION ( #135, #283, #334 ) ;
#94 = DIRECTION ( 'NONE',  ( -3.491481338843133355E-15, 1.224646799147353207E-16, -1.000000000000000000 ) ) ;
#95 = CARTESIAN_POINT ( 'NONE',  ( 0.0000000000000000000, 0.0000000000000000000, 0.0000000000000000000 ) ) ;
#96 = ORIENTED_EDGE ( 'NONE', *, *, #133, .F. ) ;
#97 = EDGE_LOOP ( 'NONE', ( #47, #15 ) ) ;
#98 = PRODUCT ( '251', '251', '', ( #247 ) ) ;
#99 = CARTESIAN_POINT ( 'NONE',  ( 1.047444401652940007E-13, -3.673940397442059178E-15, 30.00000000000000000 ) ) ;
#100 = AXIS2_PLACEMENT_3D ( 'NONE', #199, #63, #264 ) ;
#101 = CC_DESIGN_SECURITY_CLASSIFICATION ( #165, ( #223 ) ) ;
#102 = CARTESIAN_POINT ( 'NONE',  ( 0.0000000000000000000, 0.0000000000000000000, 0.0000000000000000000 ) ) ;
#103 = APPROVAL_DATE_TIME ( #235, #123 ) ;
#104 = AXIS2_PLACEMENT_3D ( 'NONE', #328, #153, #70 ) ;
#105 = FACE_OUTER_BOUND ( 'NONE', #97, .T. ) ;
#106 = EDGE_LOOP ( 'NONE', ( #140, #8, #115, #293 ) ) ;
#107 = VECTOR ( 'NONE', #318, 1000.000000000000114 ) ;
#108 = ADVANCED_FACE ( 'NONE', ( #35 ), #175, .T. ) ;
#109 = DIRECTION ( 'NONE',  ( -3.491481338843133355E-15, 1.224646799147353207E-16, -1.000000000000000000 ) ) ;
#110 = DIRECTION ( 'NONE',  ( 0.0000000000000000000, 1.000000000000000000, 0.0000000000000000000 ) ) ;
#111 = APPROVAL_ROLE ( '' ) ;
#112 = CONICAL_SURFACE ( 'NONE', #294, 0.2750000000000000222, 0.7853981633974512766 ) ;
#113 = FACE_OUTER_BOUND ( 'NONE', #106, .T. ) ;
#114 = VERTEX_POINT ( 'NONE', #4 ) ;
#115 = ORIENTED_EDGE ( 'NONE', *, *, #136, .T. ) ;
#116 = COORDINATED_UNIVERSAL_TIME_OFFSET ( 1, 0, .AHEAD. ) ;
#117 = DIRECTION ( 'NONE',  ( 5.135813185032678571E-31, 1.000000000000000000, 1.445602896647353215E-16 ) ) ;
#118 = LOCAL_TIME ( 9, 21, 31.00000000000000000, #232 ) ;
#119 = APPROVAL_PERSON_ORGANIZATION ( #254, #123, #81 ) ;
#120 = DIRECTION ( 'NONE',  ( 4.275831445896957731E-31, 1.000000000000000000, 1.224646799147352961E-16 ) ) ;
#121 = CARTESIAN_POINT ( 'NONE',  ( 0.0000000000000000000, 0.0000000000000000000, 0.0000000000000000000 ) ) ;
#122 = DIRECTION ( 'NONE',  ( -3.491481338843133355E-15, 1.224646799147353207E-16, -1.000000000000000000 ) ) ;
#123 = APPROVAL ( #130, 'UNSPECIFIED' ) ;
#124 =( NAMED_UNIT ( * ) PLANE_ANGLE_UNIT ( ) SI_UNIT ( $, .RADIAN. ) );
#125 = CARTESIAN_POINT ( 'NONE',  ( 1.047444401652940007E-13, -3.673940397442059178E-15, 30.00000000000000000 ) ) ;
#126 = AXIS2_PLACEMENT_3D ( 'NONE', #56, #2, #28 ) ;
#127 = CARTESIAN_POINT ( 'NONE',  ( 7.867101144676735028E-16, -2.759407626846749709E-17, 0.2253227321353354073 ) ) ;
#128 = CARTESIAN_POINT ( 'NONE',  ( 6.271801428720218106E-14, -0.3749999999999978351, 6.000000000000000000 ) ) ;
#129 = CARTESIAN_POINT ( 'NONE',  ( 7.867101144676735028E-16, -2.759407626846749709E-17, 0.2253227321353354073 ) ) ;
#130 = APPROVAL_STATUS ( 'not_yet_approved' ) ;
#131 = DIRECTION ( 'NONE',  ( 1.903218546456022717E-15, 0.8571673007021097801, 0.5150380749100585964 ) ) ;
#132 = PRODUCT_DEFINITION_SHAPE ( 'NONE', 'NONE',  #306 ) ;
#133 = EDGE_CURVE ( 'NONE', #164, #114, #173, .T. ) ;
#134 = CC_DESIGN_APPROVAL ( #283, ( #306 ) ) ;
#135 = PERSON_AND_ORGANIZATION ( #53, #314 ) ;
#136 = EDGE_CURVE ( 'NONE', #197, #227, #7, .T. ) ;
#137 = SECURITY_CLASSIFICATION_LEVEL ( 'unclassified' ) ;
#138 = AXIS2_PLACEMENT_3D ( 'NONE', #291, #109, #219 ) ;
#139 = DIRECTION ( 'NONE',  ( -3.491481338843133355E-15, 1.224646799147353207E-16, -1.000000000000000000 ) ) ;
#140 = ORIENTED_EDGE ( 'NONE', *, *, #271, .F. ) ;
#141 = CARTESIAN_POINT ( 'NONE',  ( 1.047444401652940007E-13, -3.673940397442059178E-15, 30.00000000000000000 ) ) ;
#142 = ORIENTED_EDGE ( 'NONE', *, *, #136, .F. ) ;
#143 = AXIS2_PLACEMENT_3D ( 'NONE', #249, #18, #145 ) ;
#144 = ORIENTED_EDGE ( 'NONE', *, *, #260, .T. ) ;
#145 = DIRECTION ( 'NONE',  ( 1.000000000000000000, 0.0000000000000000000, 0.0000000000000000000 ) ) ;
#146 = ORIENTED_EDGE ( 'NONE', *, *, #198, .T. ) ;
#147 = FACE_OUTER_BOUND ( 'NONE', #238, .T. ) ;
#148 = CC_DESIGN_PERSON_AND_ORGANIZATION_ASSIGNMENT ( #80, #76, ( #306 ) ) ;
#149 = APPLICATION_PROTOCOL_DEFINITION ( 'international standard', 'config_control_design', 1994, #11 ) ;
#150 = DIRECTION ( 'NONE',  ( -3.491481338843133355E-15, 1.224646799147353207E-16, -1.000000000000000000 ) ) ;
#151 = CIRCLE ( 'NONE', #126, 0.3749999999999970579 ) ;
#152 = CC_DESIGN_APPROVAL ( #311, ( #165 ) ) ;
#153 = DIRECTION ( 'NONE',  ( -3.491481338843133355E-15, 1.224646799147353207E-16, -1.000000000000000000 ) ) ;
#154 = PERSON_AND_ORGANIZATION ( #53, #314 ) ;
#155 = CARTESIAN_POINT ( 'NONE',  ( 1.603436792211345683E-31, 0.3749999999999967804, 4.592425496802534776E-17 ) ) ;
#156 = CALENDAR_DATE ( 2021, 3, 9 ) ;
#157 = AXIS2_PLACEMENT_3D ( 'NONE', #58, #170, #62 ) ;
#158 = CARTESIAN_POINT ( 'NONE',  ( 2.094888803305880013E-14, 0.3749999999999963363, 6.000000000000000000 ) ) ;
#159 = CARTESIAN_POINT ( 'NONE',  ( 2.094888803305880013E-14, -7.347880794884119736E-16, 6.000000000000000000 ) ) ;
#160 = CC_DESIGN_PERSON_AND_ORGANIZATION_ASSIGNMENT ( #230, #333, ( #223 ) ) ;
#161 = DATE_TIME_ROLE ( 'classification_date' ) ;
#162 = DATE_TIME_ROLE ( 'creation_date' ) ;
#163 = EDGE_LOOP ( 'NONE', ( #96, #288, #244, #39 ) ) ;
#164 = VERTEX_POINT ( 'NONE', #252 ) ;
#165 = SECURITY_CLASSIFICATION ( '', '', #137 ) ;
#166 = CARTESIAN_POINT ( 'NONE',  ( 7.867101144676735028E-16, -2.759407626846749709E-17, 0.2253227321353354073 ) ) ;
#167 = ADVANCED_FACE ( 'NONE', ( #192 ), #301, .T. ) ;
#168 = DIRECTION ( 'NONE',  ( -2.382254525458708792E-15, -0.7071067811865495711, -0.7071067811865455743 ) ) ;
#169 = ORIENTED_EDGE ( 'NONE', *, *, #133, .T. ) ;
#170 = DIRECTION ( 'NONE',  ( -3.491481338843133355E-15, 1.224646799147353207E-16, -1.000000000000000000 ) ) ;
#171 = ORIENTED_EDGE ( 'NONE', *, *, #83, .T. ) ;
#172 = AXIS2_PLACEMENT_3D ( 'NONE', #279, #87, #3 ) ;
#173 = LINE ( 'NONE', #32, #280 ) ;
#174 = CC_DESIGN_DATE_AND_TIME_ASSIGNMENT ( #22, #161, ( #165 ) ) ;
#175 = CYLINDRICAL_SURFACE ( 'NONE', #45, 0.3749999999999967804 ) ;
#176 = FACE_OUTER_BOUND ( 'NONE', #299, .T. ) ;
#177 = MANIFOLD_SOLID_BREP ( 'Corps-Déplacer/Copier1[2]', #312 ) ;
#178 = AXIS2_PLACEMENT_3D ( 'NONE', #127, #259, #214 ) ;
#179 = DIRECTION ( 'NONE',  ( -3.491481338843133355E-15, 1.224646799147353207E-16, -1.000000000000000000 ) ) ;
#180 = DIRECTION ( 'NONE',  ( 0.0000000000000000000, 1.000000000000000000, 0.0000000000000000000 ) ) ;
#181 = CARTESIAN_POINT ( 'NONE',  ( 1.047444401652940007E-13, 2.062169701159999130E-33, 30.00000000000000000 ) ) ;
#182 = EDGE_LOOP ( 'NONE', ( #309, #171, #61 ) ) ;
#183 = CYLINDRICAL_SURFACE ( 'NONE', #211, 0.3749999999999967804 ) ;
#184 = LOCAL_TIME ( 9, 21, 31.00000000000000000, #50 ) ;
#185 = EDGE_CURVE ( 'NONE', #12, #227, #248, .T. ) ;
#186 =( NAMED_UNIT ( * ) SI_UNIT ( $, .STERADIAN. ) SOLID_ANGLE_UNIT ( ) );
#187 = DIRECTION ( 'NONE',  ( -3.491481338843133355E-15, 1.224646799147353207E-16, -1.000000000000000000 ) ) ;
#188 = DIRECTION ( 'NONE',  ( -3.491481338843133355E-15, 1.224646799147353207E-16, -1.000000000000000000 ) ) ;
#189 = EDGE_LOOP ( 'NONE', ( #33, #224 ) ) ;
#190 = ADVANCED_FACE ( 'NONE', ( #337 ), #246, .T. ) ;
#191 = CIRCLE ( 'NONE', #85, 0.3749999999999970579 ) ;
#192 = FACE_OUTER_BOUND ( 'NONE', #182, .T. ) ;
#193 = ORIENTED_EDGE ( 'NONE', *, *, #286, .F. ) ;
#194 = COORDINATED_UNIVERSAL_TIME_OFFSET ( 1, 0, .AHEAD. ) ;
#195 = AXIS2_PLACEMENT_3D ( 'NONE', #129, #325, #69 ) ;
#196 = DIRECTION ( 'NONE',  ( 1.798245827342160317E-15, -0.8571673007021098911, 0.5150380749100582634 ) ) ;
#197 = VERTEX_POINT ( 'NONE', #34 ) ;
#198 = EDGE_CURVE ( 'NONE', #114, #243, #336, .T. ) ;
#199 = CARTESIAN_POINT ( 'NONE',  ( 2.094888803305880013E-14, 2.812049592490949830E-33, 6.000000000000000000 ) ) ;
#200 = ORIENTED_EDGE ( 'NONE', *, *, #19, .F. ) ;
#201 = EDGE_CURVE ( 'NONE', #324, #197, #315, .T. ) ;
#202 = CONICAL_SURFACE ( 'NONE', #195, 0.3749999999999963918, 1.029744258676649649 ) ;
#203 = VECTOR ( 'NONE', #319, 1000.000000000000000 ) ;
#204 = PERSON_AND_ORGANIZATION ( #53, #314 ) ;
#205 = CARTESIAN_POINT ( 'NONE',  ( 1.043952920314096810E-13, -3.661693929450586610E-15, 29.89999999999999858 ) ) ;
#206 = DIRECTION ( 'NONE',  ( -3.491481338843133355E-15, 1.224646799147353207E-16, -1.000000000000000000 ) ) ;
#207 = CC_DESIGN_APPROVAL ( #123, ( #223 ) ) ;
#208 =( LENGTH_UNIT ( ) NAMED_UNIT ( * ) SI_UNIT ( .MILLI., .METRE. ) );
#209 = PLANE ( 'NONE',  #172 ) ;
#210 = DESIGN_CONTEXT ( 'detailed design', #250, 'design' ) ;
#211 = AXIS2_PLACEMENT_3D ( 'NONE', #102, #206, #43 ) ;
#212 = UNCERTAINTY_MEASURE_WITH_UNIT (LENGTH_MEASURE( 1.000000000000000082E-05 ), #208, 'distance_accuracy_value', 'NONE');
#213 = LINE ( 'NONE', #282, #1 ) ;
#214 = DIRECTION ( 'NONE',  ( 5.135813185032678571E-31, 1.000000000000000000, 1.445602896647353215E-16 ) ) ;
#215 = AXIS2_PLACEMENT_3D ( 'NONE', #125, #187, #277 ) ;
#216 = CALENDAR_DATE ( 2021, 3, 9 ) ;
#217 = DATE_AND_TIME ( #216, #323 ) ;
#218 = EDGE_CURVE ( 'NONE', #243, #114, #26, .T. ) ;
#219 = DIRECTION ( 'NONE',  ( 0.0000000000000000000, 1.000000000000000000, 0.0000000000000000000 ) ) ;
#220 = DIRECTION ( 'NONE',  ( 4.275831445896958607E-31, 1.000000000000000000, 1.224646799147353207E-16 ) ) ;
#221 = CYLINDRICAL_SURFACE ( 'NONE', #38, 0.3749999999999985567 ) ;
#222 = APPLICATION_PROTOCOL_DEFINITION ( 'international standard', 'config_control_design', 1994, #250 ) ;
#223 = PRODUCT_DEFINITION_FORMATION_WITH_SPECIFIED_SOURCE ( 'ANY', '', #98, .NOT_KNOWN. ) ;
#224 = ORIENTED_EDGE ( 'NONE', *, *, #234, .F. ) ;
#225 = FACE_OUTER_BOUND ( 'NONE', #287, .T. ) ;
#226 = DIRECTION ( 'NONE',  ( 0.0000000000000000000, 1.000000000000000000, 0.0000000000000000000 ) ) ;
#227 = VERTEX_POINT ( 'NONE', #60 ) ;
#228 = CC_DESIGN_PERSON_AND_ORGANIZATION_ASSIGNMENT ( #154, #272, ( #165 ) ) ;
#229 = VECTOR ( 'NONE', #131, 999.9999999999998863 ) ;
#230 = PERSON_AND_ORGANIZATION ( #53, #314 ) ;
#231 = ADVANCED_FACE ( 'NONE', ( #327 ), #73, .F. ) ;
#232 = COORDINATED_UNIVERSAL_TIME_OFFSET ( 1, 0, .AHEAD. ) ;
#233 = APPROVAL_STATUS ( 'not_yet_approved' ) ;
#234 = EDGE_CURVE ( 'NONE', #308, #324, #240, .T. ) ;
#235 = DATE_AND_TIME ( #285, #13 ) ;
#236 = CARTESIAN_POINT ( 'NONE',  ( 0.0000000000000000000, 0.0000000000000000000, 0.0000000000000000000 ) ) ;
#237 = CARTESIAN_POINT ( 'NONE',  ( 1.047444401652940007E-13, 0.2749999999999963030, 30.00000000000000000 ) ) ;
#238 = EDGE_LOOP ( 'NONE', ( #274, #5, #200, #64 ) ) ;
#239 = CARTESIAN_POINT ( 'NONE',  ( 4.592425496802540939E-17, -0.3749999999999985567, -4.592425496802572370E-17 ) ) ;
#240 = CIRCLE ( 'NONE', #138, 0.2750000000000000222 ) ;
#241 = ADVANCED_FACE ( 'NONE', ( #147 ), #262, .T. ) ;
#242 = LINE ( 'NONE', #29, #321 ) ;
#243 = VERTEX_POINT ( 'NONE', #316 ) ;
#244 = ORIENTED_EDGE ( 'NONE', *, *, #75, .T. ) ;
#245 = ORIENTED_EDGE ( 'NONE', *, *, #31, .F. ) ;
#246 = PLANE ( 'NONE',  #100 ) ;
#247 = MECHANICAL_CONTEXT ( 'NONE', #11, 'mechanical' ) ;
#248 = CIRCLE ( 'NONE', #79, 0.3749999999999970579 ) ;
#249 = CARTESIAN_POINT ( 'NONE',  ( 0.0000000000000000000, 0.0000000000000000000, 0.0000000000000000000 ) ) ;
#250 = APPLICATION_CONTEXT ( 'configuration controlled 3d designs of mechanical parts and assemblies' ) ;
#251 = ADVANCED_FACE ( 'NONE', ( #105 ), #209, .F. ) ;
#252 = CARTESIAN_POINT ( 'NONE',  ( 1.091372332873124302E-14, -0.3749999999999978351, 6.000000000000000000 ) ) ;
#253 = DATE_AND_TIME ( #78, #273 ) ;
#254 = PERSON_AND_ORGANIZATION ( #53, #314 ) ;
#255 = PRODUCT_RELATED_PRODUCT_CATEGORY ( 'detail', '', ( #98 ) ) ;
#256 = ORIENTED_EDGE ( 'NONE', *, *, #276, .F. ) ;
#257 =( GEOMETRIC_REPRESENTATION_CONTEXT ( 3 ) GLOBAL_UNCERTAINTY_ASSIGNED_CONTEXT ( ( #212 ) ) GLOBAL_UNIT_ASSIGNED_CONTEXT ( ( #208, #124, #186 ) ) REPRESENTATION_CONTEXT ( 'NONE', 'WORKASPACE' ) );
#258 = CARTESIAN_POINT ( 'NONE',  ( 6.271801428720195386E-14, -0.3750000000000037192, 29.89999999999999858 ) ) ;
#259 = DIRECTION ( 'NONE',  ( -3.491481338843133355E-15, 1.224646799147353207E-16, -1.000000000000000000 ) ) ;
#260 = EDGE_CURVE ( 'NONE', #326, #114, #213, .T. ) ;
#261 = CARTESIAN_POINT ( 'NONE',  ( 1.046096671193241216E-13, -0.2750000000000036859, 30.00000000000000000 ) ) ;
#262 = CONICAL_SURFACE ( 'NONE', #20, 0.2750000000000000222, 0.7853981633974512766 ) ;
#263 = DIRECTION ( 'NONE',  ( -3.491481338843133355E-15, 1.224646799147353207E-16, -1.000000000000000000 ) ) ;
#264 = DIRECTION ( 'NONE',  ( -4.275831445896958607E-31, -1.000000000000000000, -1.224646799147353207E-16 ) ) ;
#265 = ORIENTED_EDGE ( 'NONE', *, *, #83, .F. ) ;
#266 = ADVANCED_FACE ( 'NONE', ( #225 ), #112, .T. ) ;
#267 = DIRECTION ( 'NONE',  ( -3.491481338843133355E-15, 1.224646799147353207E-16, -1.000000000000000000 ) ) ;
#268 = SHAPE_DEFINITION_REPRESENTATION ( #132, #86 ) ;
#269 = AXIS2_PLACEMENT_3D ( 'NONE', #166, #122, #117 ) ;
#270 = FACE_OUTER_BOUND ( 'NONE', #317, .T. ) ;
#271 = EDGE_CURVE ( 'NONE', #91, #12, #290, .T. ) ;
#272 = PERSON_AND_ORGANIZATION_ROLE ( 'classification_officer' ) ;
#273 = LOCAL_TIME ( 9, 21, 31.00000000000000000, #49 ) ;
#274 = ORIENTED_EDGE ( 'NONE', *, *, #21, .T. ) ;
#275 = PERSON_AND_ORGANIZATION ( #53, #314 ) ;
#276 = EDGE_CURVE ( 'NONE', #308, #91, #242, .T. ) ;
#277 = DIRECTION ( 'NONE',  ( 0.0000000000000000000, 1.000000000000000000, 0.0000000000000000000 ) ) ;
#278 = MANIFOLD_SOLID_BREP ( 'Corps-Déplacer/Copier1[1]', #66 ) ;
#279 = CARTESIAN_POINT ( 'NONE',  ( 2.094888803305880013E-14, 2.812049592490949830E-33, 6.000000000000000000 ) ) ;
#280 = VECTOR ( 'NONE', #139, 1000.000000000000000 ) ;
#281 = DIRECTION ( 'NONE',  ( 3.491481338843133355E-15, -1.224646799147353207E-16, 1.000000000000000000 ) ) ;
#282 = CARTESIAN_POINT ( 'NONE',  ( 7.867101144676733056E-16, -0.3749999999999964473, 0.2253227321353353518 ) ) ;
#283 = APPROVAL ( #233, 'UNSPECIFIED' ) ;
#284 = CALENDAR_DATE ( 2021, 3, 9 ) ;
#285 = CALENDAR_DATE ( 2021, 3, 9 ) ;
#286 = EDGE_CURVE ( 'NONE', #227, #12, #151, .T. ) ;
#287 = EDGE_LOOP ( 'NONE', ( #256, #322, #57, #74 ) ) ;
#288 = ORIENTED_EDGE ( 'NONE', *, *, #59, .T. ) ;
#289 = ORIENTED_EDGE ( 'NONE', *, *, #31, .T. ) ;
#290 = LINE ( 'NONE', #239, #203 ) ;
#291 = CARTESIAN_POINT ( 'NONE',  ( 1.047444401652940007E-13, -3.673940397442059178E-15, 30.00000000000000000 ) ) ;
#292 = ORIENTED_EDGE ( 'NONE', *, *, #271, .T. ) ;
#293 = ORIENTED_EDGE ( 'NONE', *, *, #185, .F. ) ;
#294 = AXIS2_PLACEMENT_3D ( 'NONE', #141, #263, #110 ) ;
#295 = ORIENTED_EDGE ( 'NONE', *, *, #75, .F. ) ;
#296 = CARTESIAN_POINT ( 'NONE',  ( 1.043952920314096810E-13, -3.661693929450586610E-15, 29.89999999999999858 ) ) ;
#297 = CC_DESIGN_PERSON_AND_ORGANIZATION_ASSIGNMENT ( #275, #55, ( #223 ) ) ;
#298 = FACE_OUTER_BOUND ( 'NONE', #25, .T. ) ;
#299 = EDGE_LOOP ( 'NONE', ( #54, #292, #193, #142 ) ) ;
#300 = AXIS2_PLACEMENT_3D ( 'NONE', #205, #150, #180 ) ;
#301 = CONICAL_SURFACE ( 'NONE', #307, 0.3749999999999963918, 1.029744258676649649 ) ;
#302 = CIRCLE ( 'NONE', #17, 0.3750000000000000000 ) ;
#303 = ADVANCED_FACE ( 'NONE', ( #113 ), #89, .T. ) ;
#304 = APPROVAL_DATE_TIME ( #253, #283 ) ;
#305 = PERSON_AND_ORGANIZATION ( #53, #314 ) ;
#306 = PRODUCT_DEFINITION ( 'UNKNOWN', '', #223, #210 ) ;
#307 = AXIS2_PLACEMENT_3D ( 'NONE', #77, #281, #52 ) ;
#308 = VERTEX_POINT ( 'NONE', #261 ) ;
#309 = ORIENTED_EDGE ( 'NONE', *, *, #260, .F. ) ;
#310 = CARTESIAN_POINT ( 'NONE',  ( 1.603436792211353128E-31, 0.3749999999999985567, 4.592425496802556346E-17 ) ) ;
#311 = APPROVAL ( #82, 'UNSPECIFIED' ) ;
#312 = CLOSED_SHELL ( 'NONE', ( #46, #167, #16, #108, #190 ) ) ;
#313 = APPROVAL_DATE_TIME ( #217, #311 ) ;
#314 = ORGANIZATION ( 'UNSPECIFIED', 'UNSPECIFIED', '' ) ;
#315 = LINE ( 'NONE', #41, #107 ) ;
#316 = CARTESIAN_POINT ( 'NONE',  ( 8.326343694356989861E-16, 0.3749999999999963363, 0.2253227321353354629 ) ) ;
#317 = EDGE_LOOP ( 'NONE', ( #265, #144, #146 ) ) ;
#318 = DIRECTION ( 'NONE',  ( -2.468850131082257455E-15, 0.7071067811865497932, -0.7071067811865453523 ) ) ;
#319 = DIRECTION ( 'NONE',  ( -3.491481338843133355E-15, 1.224646799147353207E-16, -1.000000000000000000 ) ) ;
#320 = DIRECTION ( 'NONE',  ( 0.0000000000000000000, 1.000000000000000000, 0.0000000000000000000 ) ) ;
#321 = VECTOR ( 'NONE', #168, 1000.000000000000114 ) ;
#322 = ORIENTED_EDGE ( 'NONE', *, *, #234, .T. ) ;
#323 = LOCAL_TIME ( 9, 21, 31.00000000000000000, #116 ) ;
#324 = VERTEX_POINT ( 'NONE', #237 ) ;
#325 = DIRECTION ( 'NONE',  ( 3.491481338843133355E-15, -1.224646799147353207E-16, 1.000000000000000000 ) ) ;
#326 = VERTEX_POINT ( 'NONE', #121 ) ;
#327 = FACE_OUTER_BOUND ( 'NONE', #189, .T. ) ;
#328 = CARTESIAN_POINT ( 'NONE',  ( 2.094888803305880013E-14, -7.347880794884119736E-16, 6.000000000000000000 ) ) ;
#329 = DIRECTION ( 'NONE',  ( 0.0000000000000000000, 1.000000000000000000, 0.0000000000000000000 ) ) ;
#330 = EDGE_CURVE ( 'NONE', #91, #197, #302, .T. ) ;
#331 = APPROVAL_PERSON_ORGANIZATION ( #204, #311, #111 ) ;
#332 = LINE ( 'NONE', #84, #229 ) ;
#333 = PERSON_AND_ORGANIZATION_ROLE ( 'creator' ) ;
#334 = APPROVAL_ROLE ( '' ) ;
#335 = CC_DESIGN_PERSON_AND_ORGANIZATION_ASSIGNMENT ( #305, #27, ( #98 ) ) ;
#336 = CIRCLE ( 'NONE', #269, 0.3749999999999963918 ) ;
#337 = FACE_OUTER_BOUND ( 'NONE', #37, .T. ) ;
ENDSEC;
END-ISO-10303-21;
