ISO-10303-21;
HEADER;
FILE_DESCRIPTION (( 'STEP AP203' ),
    '1' );
FILE_NAME ('250.step',
    '2021-09-03T07:21:30',
    ( '' ),
    ( '' ),
    'SwSTEP 2.0',
    'SolidWorks 2019',
    '' );
FILE_SCHEMA (( 'CONFIG_CONTROL_DESIGN' ));
ENDSEC;

DATA;
#1 = EDGE_LOOP ( 'NONE', ( #172, #136, #16, #73 ) ) ;
#2 = ORIENTED_EDGE ( 'NONE', *, *, #280, .T. ) ;
#3 = DATE_AND_TIME ( #68, #184 ) ;
#4 = AXIS2_PLACEMENT_3D ( 'NONE', #122, #106, #155 ) ;
#5 = MECHANICAL_CONTEXT ( 'NONE', #225, 'mechanical' ) ;
#6 = DIRECTION ( 'NONE',  ( 0.0000000000000000000, 1.000000000000000000, 0.0000000000000000000 ) ) ;
#7 = EDGE_LOOP ( 'NONE', ( #154, #251, #75, #9 ) ) ;
#8 = DIRECTION ( 'NONE',  ( 5.502656983963589188E-31, 1.000000000000000000, 1.548860246407879853E-16 ) ) ;
#9 = ORIENTED_EDGE ( 'NONE', *, *, #104, .F. ) ;
#10 = DIRECTION ( 'NONE',  ( 0.0000000000000000000, 1.000000000000000000, 0.0000000000000000000 ) ) ;
#11 = ORIENTED_EDGE ( 'NONE', *, *, #244, .T. ) ;
#12 = CIRCLE ( 'NONE', #228, 0.3499999999999970912 ) ;
#13 = FACE_OUTER_BOUND ( 'NONE', #162, .T. ) ;
#14 = APPROVAL_STATUS ( 'not_yet_approved' ) ;
#15 = VECTOR ( 'NONE', #102, 999.9999999999998863 ) ;
#16 = ORIENTED_EDGE ( 'NONE', *, *, #36, .T. ) ;
#17 = PERSON_AND_ORGANIZATION_ROLE ( 'design_supplier' ) ;
#18 = EDGE_CURVE ( 'NONE', #159, #183, #200, .T. ) ;
#19 = UNCERTAINTY_MEASURE_WITH_UNIT (LENGTH_MEASURE( 1.000000000000000082E-05 ), #108, 'distance_accuracy_value', 'NONE');
#20 = APPROVAL_PERSON_ORGANIZATION ( #134, #299, #181 ) ;
#21 = ORIENTED_EDGE ( 'NONE', *, *, #306, .T. ) ;
#22 = DIRECTION ( 'NONE',  ( -3.491481338843133355E-15, 1.224646799147353207E-16, -1.000000000000000000 ) ) ;
#23 = CARTESIAN_POINT ( 'NONE',  ( 0.0000000000000000000, 0.0000000000000000000, 0.0000000000000000000 ) ) ;
#24 = CARTESIAN_POINT ( 'NONE',  ( 4.286263797015680512E-17, -0.3499999999999967026, -4.286263797015710094E-17 ) ) ;
#25 = CIRCLE ( 'NONE', #220, 0.3499999999999970912 ) ;
#26 = PERSON_AND_ORGANIZATION ( #101, #245 ) ;
#27 = ADVANCED_FACE ( 'NONE', ( #113 ), #307, .T. ) ;
#28 = APPLICATION_PROTOCOL_DEFINITION ( 'international standard', 'config_control_design', 1994, #268 ) ;
#29 = SHAPE_DEFINITION_REPRESENTATION ( #54, #240 ) ;
#30 = APPROVAL ( #72, 'UNSPECIFIED' ) ;
#31 = EDGE_LOOP ( 'NONE', ( #69, #62, #232 ) ) ;
#32 = CARTESIAN_POINT ( 'NONE',  ( 1.043952920314096810E-13, 0.3499999999999963141, 29.89999999999999858 ) ) ;
#33 = ORIENTED_EDGE ( 'NONE', *, *, #127, .T. ) ;
#34 = CARTESIAN_POINT ( 'NONE',  ( 6.271495267020431962E-14, -0.3499999999999978129, 6.000000000000000000 ) ) ;
#35 = DIRECTION ( 'NONE',  ( 0.0000000000000000000, 1.000000000000000000, 0.0000000000000000000 ) ) ;
#36 = EDGE_CURVE ( 'NONE', #179, #145, #273, .T. ) ;
#37 = DIRECTION ( 'NONE',  ( -3.491481338843133355E-15, 1.224646799147353207E-16, -1.000000000000000000 ) ) ;
#38 = PRODUCT_DEFINITION_FORMATION_WITH_SPECIFIED_SOURCE ( 'ANY', '', #80, .NOT_KNOWN. ) ;
#39 = CARTESIAN_POINT ( 'NONE',  ( 2.094888803305880013E-14, 0.3499999999999963141, 6.000000000000000000 ) ) ;
#40 = CARTESIAN_POINT ( 'NONE',  ( 0.0000000000000000000, 0.0000000000000000000, 0.0000000000000000000 ) ) ;
#41 = ORIENTED_EDGE ( 'NONE', *, *, #226, .T. ) ;
#42 = DIRECTION ( 'NONE',  ( -3.491481338843133355E-15, 1.224646799147353207E-16, -1.000000000000000000 ) ) ;
#43 = AXIS2_PLACEMENT_3D ( 'NONE', #208, #91, #6 ) ;
#44 = CC_DESIGN_PERSON_AND_ORGANIZATION_ASSIGNMENT ( #26, #275, ( #139 ) ) ;
#45 = VERTEX_POINT ( 'NONE', #241 ) ;
#46 = PLANE ( 'NONE',  #143 ) ;
#47 = EDGE_LOOP ( 'NONE', ( #209, #33, #323, #56 ) ) ;
#48 = ADVANCED_FACE ( 'NONE', ( #303 ), #167, .T. ) ;
#49 = CARTESIAN_POINT ( 'NONE',  ( 7.342627735031613969E-16, -2.575447118390297346E-17, 0.2103012166596462118 ) ) ;
#50 = DIRECTION ( 'NONE',  ( 3.491481338843133355E-15, -1.224646799147353207E-16, 1.000000000000000000 ) ) ;
#51 = DIRECTION ( 'NONE',  ( -3.491481338843133355E-15, 1.224646799147353207E-16, -1.000000000000000000 ) ) ;
#52 = CONICAL_SURFACE ( 'NONE', #256, 0.2500000000000000000, 0.7853981633974512766 ) ;
#53 = FACE_OUTER_BOUND ( 'NONE', #204, .T. ) ;
#54 = PRODUCT_DEFINITION_SHAPE ( 'NONE', 'NONE',  #254 ) ;
#55 = CIRCLE ( 'NONE', #215, 0.3499999999999963141 ) ;
#56 = ORIENTED_EDGE ( 'NONE', *, *, #36, .F. ) ;
#57 = DIRECTION ( 'NONE',  ( -3.491481338843133355E-15, 1.224646799147353207E-16, -1.000000000000000000 ) ) ;
#58 = PERSON_AND_ORGANIZATION ( #101, #245 ) ;
#59 = MANIFOLD_SOLID_BREP ( 'Corps-Déplacer/Copier1[1]', #282 ) ;
#60 = DIRECTION ( 'NONE',  ( 1.000000000000000000, 0.0000000000000000000, 0.0000000000000000000 ) ) ;
#61 = ADVANCED_FACE ( 'NONE', ( #308 ), #289, .T. ) ;
#62 = ORIENTED_EDGE ( 'NONE', *, *, #291, .T. ) ;
#63 = CARTESIAN_POINT ( 'NONE',  ( 1.047444401652940007E-13, 1.874699728327266587E-33, 30.00000000000000000 ) ) ;
#64 =( GEOMETRIC_REPRESENTATION_CONTEXT ( 3 ) GLOBAL_UNCERTAINTY_ASSIGNED_CONTEXT ( ( #19 ) ) GLOBAL_UNIT_ASSIGNED_CONTEXT ( ( #108, #82, #237 ) ) REPRESENTATION_CONTEXT ( 'NONE', 'WORKASPACE' ) );
#65 = CARTESIAN_POINT ( 'NONE',  ( 0.0000000000000000000, 0.0000000000000000000, 0.0000000000000000000 ) ) ;
#66 = DATE_AND_TIME ( #309, #310 ) ;
#67 = LINE ( 'NONE', #264, #121 ) ;
#68 = CALENDAR_DATE ( 2021, 3, 9 ) ;
#69 = ORIENTED_EDGE ( 'NONE', *, *, #244, .F. ) ;
#70 = AXIS2_PLACEMENT_3D ( 'NONE', #49, #191, #252 ) ;
#71 = AXIS2_PLACEMENT_3D ( 'NONE', #23, #242, #198 ) ;
#72 = APPROVAL_STATUS ( 'not_yet_approved' ) ;
#73 = ORIENTED_EDGE ( 'NONE', *, *, #260, .F. ) ;
#74 = DATE_AND_TIME ( #316, #96 ) ;
#75 = ORIENTED_EDGE ( 'NONE', *, *, #328, .T. ) ;
#76 = AXIS2_PLACEMENT_3D ( 'NONE', #98, #37, #239 ) ;
#77 = DIRECTION ( 'NONE',  ( 4.275831445896958607E-31, 1.000000000000000000, 1.224646799147353207E-16 ) ) ;
#78 = DIRECTION ( 'NONE',  ( -3.491481338843133355E-15, 1.224646799147353207E-16, -1.000000000000000000 ) ) ;
#79 = CALENDAR_DATE ( 2021, 3, 9 ) ;
#80 = PRODUCT ( '250', '250', '', ( #5 ) ) ;
#81 = DIRECTION ( 'NONE',  ( 0.0000000000000000000, 1.000000000000000000, 0.0000000000000000000 ) ) ;
#82 =( NAMED_UNIT ( * ) PLANE_ANGLE_UNIT ( ) SI_UNIT ( $, .RADIAN. ) );
#83 = DIRECTION ( 'NONE',  ( 4.275831445896958607E-31, 1.000000000000000000, 1.224646799147353207E-16 ) ) ;
#84 = DIRECTION ( 'NONE',  ( 1.798245827342160317E-15, -0.8571673007021098911, 0.5150380749100582634 ) ) ;
#85 = VECTOR ( 'NONE', #221, 1000.000000000000114 ) ;
#86 = DIRECTION ( 'NONE',  ( 0.0000000000000000000, 1.000000000000000000, 0.0000000000000000000 ) ) ;
#87 = ORIENTED_EDGE ( 'NONE', *, *, #110, .F. ) ;
#88 = CARTESIAN_POINT ( 'NONE',  ( 1.047444401652940007E-13, 0.2499999999999963085, 30.00000000000000000 ) ) ;
#89 = ORIENTED_EDGE ( 'NONE', *, *, #18, .T. ) ;
#90 = APPROVAL_PERSON_ORGANIZATION ( #58, #235, #99 ) ;
#91 = DIRECTION ( 'NONE',  ( -3.491481338843133355E-15, 1.224646799147353207E-16, -1.000000000000000000 ) ) ;
#92 = ADVANCED_FACE ( 'NONE', ( #329 ), #274, .T. ) ;
#93 = DIRECTION ( 'NONE',  ( -5.502656983963589188E-31, -1.000000000000000000, -1.548860246407879853E-16 ) ) ;
#94 = CARTESIAN_POINT ( 'NONE',  ( 2.094888803305880013E-14, -7.347880794884119736E-16, 6.000000000000000000 ) ) ;
#95 = CARTESIAN_POINT ( 'NONE',  ( 7.342627735031611997E-16, -0.3499999999999963141, 0.2103012166596461563 ) ) ;
#96 = LOCAL_TIME ( 9, 21, 30.00000000000000000, #222 ) ;
#97 = CARTESIAN_POINT ( 'NONE',  ( 2.094888803305880013E-14, -7.347880794884119736E-16, 6.000000000000000000 ) ) ;
#98 = CARTESIAN_POINT ( 'NONE',  ( 1.047444401652940007E-13, -3.673940397442059178E-15, 30.00000000000000000 ) ) ;
#99 = APPROVAL_ROLE ( '' ) ;
#100 = EDGE_CURVE ( 'NONE', #145, #129, #12, .T. ) ;
#101 = PERSON ( 'UNSPECIFIED', 'UNSPECIFIED', 'UNSPECIFIED', ('UNSPECIFIED'), ('UNSPECIFIED'), ('UNSPECIFIED') ) ;
#102 = DIRECTION ( 'NONE',  ( 1.903218546456022717E-15, 0.8571673007021097801, 0.5150380749100585964 ) ) ;
#103 = CIRCLE ( 'NONE', #43, 0.3499999999999999778 ) ;
#104 = EDGE_CURVE ( 'NONE', #45, #179, #194, .T. ) ;
#105 = DATE_AND_TIME ( #185, #297 ) ;
#106 = DIRECTION ( 'NONE',  ( -3.491481338843133355E-15, 1.224646799147353207E-16, -1.000000000000000000 ) ) ;
#107 = ORIENTED_EDGE ( 'NONE', *, *, #285, .F. ) ;
#108 =( LENGTH_UNIT ( ) NAMED_UNIT ( * ) SI_UNIT ( .MILLI., .METRE. ) );
#109 = AXIS2_PLACEMENT_3D ( 'NONE', #63, #325, #77 ) ;
#110 = EDGE_CURVE ( 'NONE', #140, #124, #199, .T. ) ;
#111 = DIRECTION ( 'NONE',  ( 0.0000000000000000000, 1.000000000000000000, 0.0000000000000000000 ) ) ;
#112 = CARTESIAN_POINT ( 'NONE',  ( 4.286263797015703315E-17, -0.3499999999999985345, -4.286263797015732897E-17 ) ) ;
#113 = FACE_OUTER_BOUND ( 'NONE', #31, .T. ) ;
#114 = CC_DESIGN_PERSON_AND_ORGANIZATION_ASSIGNMENT ( #246, #17, ( #38 ) ) ;
#115 = DIRECTION ( 'NONE',  ( 5.502656983963589188E-31, 1.000000000000000000, 1.548860246407879853E-16 ) ) ;
#116 = DIRECTION ( 'NONE',  ( 0.0000000000000000000, 0.0000000000000000000, 1.000000000000000000 ) ) ;
#117 = ADVANCED_FACE ( 'NONE', ( #13 ), #52, .T. ) ;
#118 = AXIS2_PLACEMENT_3D ( 'NONE', #187, #247, #327 ) ;
#119 = CARTESIAN_POINT ( 'NONE',  ( 1.047444401652940007E-13, 0.2499999999999963085, 30.00000000000000000 ) ) ;
#120 = PLANE ( 'NONE',  #263 ) ;
#121 = VECTOR ( 'NONE', #168, 1000.000000000000000 ) ;
#122 = CARTESIAN_POINT ( 'NONE',  ( 0.0000000000000000000, 0.0000000000000000000, 0.0000000000000000000 ) ) ;
#123 = APPROVAL_STATUS ( 'not_yet_approved' ) ;
#124 = VERTEX_POINT ( 'NONE', #166 ) ;
#125 = PERSON_AND_ORGANIZATION ( #101, #245 ) ;
#126 = FACE_OUTER_BOUND ( 'NONE', #331, .T. ) ;
#127 = EDGE_CURVE ( 'NONE', #45, #129, #189, .T. ) ;
#128 = APPROVAL_DATE_TIME ( #210, #30 ) ;
#129 = VERTEX_POINT ( 'NONE', #34 ) ;
#130 = AXIS2_PLACEMENT_3D ( 'NONE', #138, #335, #81 ) ;
#131 = VECTOR ( 'NONE', #84, 1000.000000000000000 ) ;
#132 = DIRECTION ( 'NONE',  ( -4.275831445896958607E-31, -1.000000000000000000, -1.224646799147353207E-16 ) ) ;
#133 = ORIENTED_EDGE ( 'NONE', *, *, #100, .T. ) ;
#134 = PERSON_AND_ORGANIZATION ( #101, #245 ) ;
#135 = CIRCLE ( 'NONE', #177, 0.3499999999999970912 ) ;
#136 = ORIENTED_EDGE ( 'NONE', *, *, #104, .T. ) ;
#137 = CC_DESIGN_PERSON_AND_ORGANIZATION_ASSIGNMENT ( #322, #227, ( #254 ) ) ;
#138 = CARTESIAN_POINT ( 'NONE',  ( 2.094888803305880013E-14, -7.347880794884119736E-16, 6.000000000000000000 ) ) ;
#139 = SECURITY_CLASSIFICATION ( '', '', #301 ) ;
#140 = VERTEX_POINT ( 'NONE', #119 ) ;
#141 = EDGE_CURVE ( 'NONE', #157, #295, #55, .T. ) ;
#142 = DIRECTION ( 'NONE',  ( 3.491481338843133355E-15, -1.224646799147353207E-16, 1.000000000000000000 ) ) ;
#143 = AXIS2_PLACEMENT_3D ( 'NONE', #250, #50, #165 ) ;
#144 = CARTESIAN_POINT ( 'NONE',  ( 7.342627735031613969E-16, -2.575447118390297346E-17, 0.2103012166596462118 ) ) ;
#145 = VERTEX_POINT ( 'NONE', #304 ) ;
#146 = CARTESIAN_POINT ( 'NONE',  ( 1.043952920314096810E-13, -3.661693929450586610E-15, 29.89999999999999858 ) ) ;
#147 = DIRECTION ( 'NONE',  ( -3.491481338843133355E-15, 1.224646799147353207E-16, -1.000000000000000000 ) ) ;
#148 = PRODUCT_RELATED_PRODUCT_CATEGORY ( 'detail', '', ( #80 ) ) ;
#149 = DIRECTION ( 'NONE',  ( -3.491481338843133355E-15, 1.224646799147353207E-16, -1.000000000000000000 ) ) ;
#150 = CC_DESIGN_APPROVAL ( #30, ( #254 ) ) ;
#151 = DATE_TIME_ROLE ( 'creation_date' ) ;
#152 = CARTESIAN_POINT ( 'NONE',  ( 7.771254114733184424E-16, 0.3499999999999963141, 0.2103012166596462673 ) ) ;
#153 = APPROVAL_DATE_TIME ( #74, #299 ) ;
#154 = ORIENTED_EDGE ( 'NONE', *, *, #280, .F. ) ;
#155 = DIRECTION ( 'NONE',  ( 4.275831445896958607E-31, 1.000000000000000000, 1.224646799147353207E-16 ) ) ;
#156 = ORIENTED_EDGE ( 'NONE', *, *, #229, .T. ) ;
#157 = VERTEX_POINT ( 'NONE', #95 ) ;
#158 = ADVANCED_FACE ( 'NONE', ( #265 ), #171, .T. ) ;
#159 = VERTEX_POINT ( 'NONE', #278 ) ;
#160 = LINE ( 'NONE', #88, #205 ) ;
#161 = AXIS2_PLACEMENT_3D ( 'NONE', #144, #142, #93 ) ;
#162 = EDGE_LOOP ( 'NONE', ( #266, #2, #305, #188 ) ) ;
#163 = CYLINDRICAL_SURFACE ( 'NONE', #71, 0.3499999999999967026 ) ;
#164 = ADVANCED_FACE ( 'NONE', ( #337 ), #302, .T. ) ;
#165 = DIRECTION ( 'NONE',  ( -4.275831445896958607E-31, -1.000000000000000000, -1.224646799147353207E-16 ) ) ;
#166 = CARTESIAN_POINT ( 'NONE',  ( 1.046066055023262727E-13, -0.2500000000000036637, 30.00000000000000000 ) ) ;
#167 = CONICAL_SURFACE ( 'NONE', #161, 0.3499999999999963141, 1.029744258676649649 ) ;
#168 = DIRECTION ( 'NONE',  ( -3.491481338843133355E-15, 1.224646799147353207E-16, -1.000000000000000000 ) ) ;
#169 = ADVANCED_FACE ( 'NONE', ( #53 ), #163, .T. ) ;
#170 = VECTOR ( 'NONE', #22, 1000.000000000000000 ) ;
#171 = CYLINDRICAL_SURFACE ( 'NONE', #224, 0.3499999999999967026 ) ;
#172 = ORIENTED_EDGE ( 'NONE', *, *, #127, .F. ) ;
#173 = EDGE_LOOP ( 'NONE', ( #178, #11, #156 ) ) ;
#174 = EDGE_CURVE ( 'NONE', #183, #295, #67, .T. ) ;
#175 = MANIFOLD_SOLID_BREP ( 'Corps-Déplacer/Copier1[2]', #262 ) ;
#176 = ORIENTED_EDGE ( 'NONE', *, *, #306, .F. ) ;
#177 = AXIS2_PLACEMENT_3D ( 'NONE', #180, #42, #10 ) ;
#178 = ORIENTED_EDGE ( 'NONE', *, *, #291, .F. ) ;
#179 = VERTEX_POINT ( 'NONE', #32 ) ;
#180 = CARTESIAN_POINT ( 'NONE',  ( 2.094888803305880013E-14, -7.347880794884119736E-16, 6.000000000000000000 ) ) ;
#181 = APPROVAL_ROLE ( '' ) ;
#182 = EDGE_LOOP ( 'NONE', ( #87, #107 ) ) ;
#183 = VERTEX_POINT ( 'NONE', #39 ) ;
#184 = LOCAL_TIME ( 9, 21, 30.00000000000000000, #261 ) ;
#185 = CALENDAR_DATE ( 2021, 3, 9 ) ;
#186 = ORIENTED_EDGE ( 'NONE', *, *, #229, .F. ) ;
#187 = CARTESIAN_POINT ( 'NONE',  ( 1.047444401652940007E-13, -3.673940397442059178E-15, 30.00000000000000000 ) ) ;
#188 = ORIENTED_EDGE ( 'NONE', *, *, #328, .F. ) ;
#189 = LINE ( 'NONE', #112, #201 ) ;
#190 = ADVANCED_FACE ( 'NONE', ( #126 ), #120, .F. ) ;
#191 = DIRECTION ( 'NONE',  ( 3.491481338843133355E-15, -1.224646799147353207E-16, 1.000000000000000000 ) ) ;
#192 = DIRECTION ( 'NONE',  ( -3.491481338843133355E-15, 1.224646799147353207E-16, -1.000000000000000000 ) ) ;
#193 = DIRECTION ( 'NONE',  ( -2.468850131082257455E-15, 0.7071067811865497932, -0.7071067811865453523 ) ) ;
#194 = CIRCLE ( 'NONE', #238, 0.3499999999999999778 ) ;
#195 = DATE_TIME_ROLE ( 'classification_date' ) ;
#196 = CARTESIAN_POINT ( 'NONE',  ( 1.047444401652940007E-13, -3.673940397442059178E-15, 30.00000000000000000 ) ) ;
#197 = CC_DESIGN_PERSON_AND_ORGANIZATION_ASSIGNMENT ( #243, #321, ( #38 ) ) ;
#198 = DIRECTION ( 'NONE',  ( 4.275831445896958607E-31, 1.000000000000000000, 1.224646799147353207E-16 ) ) ;
#199 = CIRCLE ( 'NONE', #76, 0.2500000000000000000 ) ;
#200 = CIRCLE ( 'NONE', #130, 0.3499999999999970912 ) ;
#201 = VECTOR ( 'NONE', #255, 1000.000000000000000 ) ;
#202 = ORIENTED_EDGE ( 'NONE', *, *, #174, .F. ) ;
#203 = CC_DESIGN_DATE_AND_TIME_ASSIGNMENT ( #66, #195, ( #139 ) ) ;
#204 = EDGE_LOOP ( 'NONE', ( #176, #89, #230, #272 ) ) ;
#205 = VECTOR ( 'NONE', #193, 1000.000000000000114 ) ;
#206 = CARTESIAN_POINT ( 'NONE',  ( 0.0000000000000000000, 0.0000000000000000000, 0.0000000000000000000 ) ) ;
#207 = APPROVAL_ROLE ( '' ) ;
#208 = CARTESIAN_POINT ( 'NONE',  ( 1.043952920314096810E-13, -3.661693929450586610E-15, 29.89999999999999858 ) ) ;
#209 = ORIENTED_EDGE ( 'NONE', *, *, #267, .T. ) ;
#210 = DATE_AND_TIME ( #79, #330 ) ;
#211 = AXIS2_PLACEMENT_3D ( 'NONE', #290, #217, #115 ) ;
#212 = CARTESIAN_POINT ( 'NONE',  ( 1.047750563352726908E-13, -0.2500000000000036637, 30.00000000000000000 ) ) ;
#213 = PLANE ( 'NONE',  #109 ) ;
#214 = ADVANCED_FACE ( 'NONE', ( #259 ), #213, .F. ) ;
#215 = AXIS2_PLACEMENT_3D ( 'NONE', #271, #78, #8 ) ;
#216 = APPROVAL_DATE_TIME ( #3, #235 ) ;
#217 = DIRECTION ( 'NONE',  ( -3.491481338843133355E-15, 1.224646799147353207E-16, -1.000000000000000000 ) ) ;
#218 = EDGE_LOOP ( 'NONE', ( #41, #21, #186, #202 ) ) ;
#219 = COORDINATED_UNIVERSAL_TIME_OFFSET ( 1, 0, .AHEAD. ) ;
#220 = AXIS2_PLACEMENT_3D ( 'NONE', #97, #276, #111 ) ;
#221 = DIRECTION ( 'NONE',  ( -2.382254525458708792E-15, -0.7071067811865495711, -0.7071067811865455743 ) ) ;
#222 = COORDINATED_UNIVERSAL_TIME_OFFSET ( 1, 0, .AHEAD. ) ;
#223 = PERSON_AND_ORGANIZATION_ROLE ( 'design_owner' ) ;
#224 = AXIS2_PLACEMENT_3D ( 'NONE', #292, #192, #83 ) ;
#225 = APPLICATION_CONTEXT ( 'configuration controlled 3d designs of mechanical parts and assemblies' ) ;
#226 = EDGE_CURVE ( 'NONE', #183, #159, #135, .T. ) ;
#227 = PERSON_AND_ORGANIZATION_ROLE ( 'creator' ) ;
#228 = AXIS2_PLACEMENT_3D ( 'NONE', #94, #286, #35 ) ;
#229 = EDGE_CURVE ( 'NONE', #295, #157, #248, .T. ) ;
#230 = ORIENTED_EDGE ( 'NONE', *, *, #174, .T. ) ;
#231 = DESIGN_CONTEXT ( 'detailed design', #268, 'design' ) ;
#232 = ORIENTED_EDGE ( 'NONE', *, *, #141, .T. ) ;
#233 = CARTESIAN_POINT ( 'NONE',  ( 7.771254114733184424E-16, 0.3499999999999963141, 0.2103012166596462673 ) ) ;
#234 = APPROVAL_PERSON_ORGANIZATION ( #317, #30, #207 ) ;
#235 = APPROVAL ( #123, 'UNSPECIFIED' ) ;
#236 = ORIENTED_EDGE ( 'NONE', *, *, #18, .F. ) ;
#237 =( NAMED_UNIT ( * ) SI_UNIT ( $, .STERADIAN. ) SOLID_ANGLE_UNIT ( ) );
#238 = AXIS2_PLACEMENT_3D ( 'NONE', #146, #149, #313 ) ;
#239 = DIRECTION ( 'NONE',  ( 0.0000000000000000000, 1.000000000000000000, 0.0000000000000000000 ) ) ;
#240 = ADVANCED_BREP_SHAPE_REPRESENTATION ( '250', ( #59, #175, #283 ), #64 ) ;
#241 = CARTESIAN_POINT ( 'NONE',  ( 6.271495267020404194E-14, -0.3500000000000036970, 29.89999999999999858 ) ) ;
#242 = DIRECTION ( 'NONE',  ( -3.491481338843133355E-15, 1.224646799147353207E-16, -1.000000000000000000 ) ) ;
#243 = PERSON_AND_ORGANIZATION ( #101, #245 ) ;
#244 = EDGE_CURVE ( 'NONE', #258, #295, #312, .T. ) ;
#245 = ORGANIZATION ( 'UNSPECIFIED', 'UNSPECIFIED', '' ) ;
#246 = PERSON_AND_ORGANIZATION ( #101, #245 ) ;
#247 = DIRECTION ( 'NONE',  ( -3.491481338843133355E-15, 1.224646799147353207E-16, -1.000000000000000000 ) ) ;
#248 = CIRCLE ( 'NONE', #211, 0.3499999999999963141 ) ;
#249 = CC_DESIGN_APPROVAL ( #235, ( #139 ) ) ;
#250 = CARTESIAN_POINT ( 'NONE',  ( 2.094888803305880013E-14, 2.624579619658217971E-33, 6.000000000000000000 ) ) ;
#251 = ORIENTED_EDGE ( 'NONE', *, *, #285, .T. ) ;
#252 = DIRECTION ( 'NONE',  ( -5.502656983963589188E-31, -1.000000000000000000, -1.548860246407879853E-16 ) ) ;
#253 = LINE ( 'NONE', #24, #319 ) ;
#254 = PRODUCT_DEFINITION ( 'UNKNOWN', '', #38, #231 ) ;
#255 = DIRECTION ( 'NONE',  ( -3.491481338843133355E-15, 1.224646799147353207E-16, -1.000000000000000000 ) ) ;
#256 = AXIS2_PLACEMENT_3D ( 'NONE', #314, #57, #293 ) ;
#257 = CARTESIAN_POINT ( 'NONE',  ( 1.496541006063929338E-31, 0.3499999999999985345, 4.286263797015718106E-17 ) ) ;
#258 = VERTEX_POINT ( 'NONE', #40 ) ;
#259 = FACE_OUTER_BOUND ( 'NONE', #182, .T. ) ;
#260 = EDGE_CURVE ( 'NONE', #129, #145, #25, .T. ) ;
#261 = COORDINATED_UNIVERSAL_TIME_OFFSET ( 1, 0, .AHEAD. ) ;
#262 = CLOSED_SHELL ( 'NONE', ( #158, #48, #27, #169, #294 ) ) ;
#263 = AXIS2_PLACEMENT_3D ( 'NONE', #311, #315, #132 ) ;
#264 = CARTESIAN_POINT ( 'NONE',  ( 1.496541006063921456E-31, 0.3499999999999967026, 4.286263797015695919E-17 ) ) ;
#265 = FACE_OUTER_BOUND ( 'NONE', #218, .T. ) ;
#266 = ORIENTED_EDGE ( 'NONE', *, *, #110, .T. ) ;
#267 = EDGE_CURVE ( 'NONE', #179, #45, #103, .T. ) ;
#268 = APPLICATION_CONTEXT ( 'configuration controlled 3d designs of mechanical parts and assemblies' ) ;
#269 = COORDINATED_UNIVERSAL_TIME_OFFSET ( 1, 0, .AHEAD. ) ;
#270 = CC_DESIGN_APPROVAL ( #299, ( #38 ) ) ;
#271 = CARTESIAN_POINT ( 'NONE',  ( 7.342627735031613969E-16, -2.575447118390297346E-17, 0.2103012166596462118 ) ) ;
#272 = ORIENTED_EDGE ( 'NONE', *, *, #141, .F. ) ;
#273 = LINE ( 'NONE', #257, #170 ) ;
#274 = CYLINDRICAL_SURFACE ( 'NONE', #336, 0.3499999999999985345 ) ;
#275 = PERSON_AND_ORGANIZATION_ROLE ( 'classification_officer' ) ;
#276 = DIRECTION ( 'NONE',  ( -3.491481338843133355E-15, 1.224646799147353207E-16, -1.000000000000000000 ) ) ;
#277 = AXIS2_PLACEMENT_3D ( 'NONE', #196, #147, #86 ) ;
#278 = CARTESIAN_POINT ( 'NONE',  ( 1.088443804125111543E-14, -0.3499999999999978129, 6.000000000000000000 ) ) ;
#279 = LINE ( 'NONE', #212, #85 ) ;
#280 = EDGE_CURVE ( 'NONE', #124, #45, #279, .T. ) ;
#281 = CARTESIAN_POINT ( 'NONE',  ( 7.342627735031611997E-16, -0.3499999999999963141, 0.2103012166596461563 ) ) ;
#282 = CLOSED_SHELL ( 'NONE', ( #117, #61, #190, #92, #164, #214 ) ) ;
#283 = AXIS2_PLACEMENT_3D ( 'NONE', #65, #116, #60 ) ;
#284 = CC_DESIGN_SECURITY_CLASSIFICATION ( #139, ( #38 ) ) ;
#285 = EDGE_CURVE ( 'NONE', #124, #140, #288, .T. ) ;
#286 = DIRECTION ( 'NONE',  ( -3.491481338843133355E-15, 1.224646799147353207E-16, -1.000000000000000000 ) ) ;
#287 = APPLICATION_PROTOCOL_DEFINITION ( 'international standard', 'config_control_design', 1994, #225 ) ;
#288 = CIRCLE ( 'NONE', #277, 0.2500000000000000000 ) ;
#289 = CYLINDRICAL_SURFACE ( 'NONE', #4, 0.3499999999999985345 ) ;
#290 = CARTESIAN_POINT ( 'NONE',  ( 7.342627735031613969E-16, -2.575447118390297346E-17, 0.2103012166596462118 ) ) ;
#291 = EDGE_CURVE ( 'NONE', #258, #157, #333, .T. ) ;
#292 = CARTESIAN_POINT ( 'NONE',  ( 0.0000000000000000000, 0.0000000000000000000, 0.0000000000000000000 ) ) ;
#293 = DIRECTION ( 'NONE',  ( 0.0000000000000000000, 1.000000000000000000, 0.0000000000000000000 ) ) ;
#294 = ADVANCED_FACE ( 'NONE', ( #332 ), #46, .T. ) ;
#295 = VERTEX_POINT ( 'NONE', #233 ) ;
#296 = DIRECTION ( 'NONE',  ( 4.275831445896958607E-31, 1.000000000000000000, 1.224646799147353207E-16 ) ) ;
#297 = LOCAL_TIME ( 9, 21, 30.00000000000000000, #324 ) ;
#298 = CC_DESIGN_DATE_AND_TIME_ASSIGNMENT ( #105, #151, ( #254 ) ) ;
#299 = APPROVAL ( #14, 'UNSPECIFIED' ) ;
#300 = DIRECTION ( 'NONE',  ( -3.491481338843133355E-15, 1.224646799147353207E-16, -1.000000000000000000 ) ) ;
#301 = SECURITY_CLASSIFICATION_LEVEL ( 'unclassified' ) ;
#302 = CONICAL_SURFACE ( 'NONE', #118, 0.2500000000000000000, 0.7853981633974512766 ) ;
#303 = FACE_OUTER_BOUND ( 'NONE', #173, .T. ) ;
#304 = CARTESIAN_POINT ( 'NONE',  ( 2.094888803305880013E-14, 0.3499999999999963141, 6.000000000000000000 ) ) ;
#305 = ORIENTED_EDGE ( 'NONE', *, *, #267, .F. ) ;
#306 = EDGE_CURVE ( 'NONE', #159, #157, #253, .T. ) ;
#307 = CONICAL_SURFACE ( 'NONE', #70, 0.3499999999999963141, 1.029744258676649649 ) ;
#308 = FACE_OUTER_BOUND ( 'NONE', #47, .T. ) ;
#309 = CALENDAR_DATE ( 2021, 3, 9 ) ;
#310 = LOCAL_TIME ( 9, 21, 30.00000000000000000, #219 ) ;
#311 = CARTESIAN_POINT ( 'NONE',  ( 2.094888803305880013E-14, 2.624579619658217971E-33, 6.000000000000000000 ) ) ;
#312 = LINE ( 'NONE', #152, #15 ) ;
#313 = DIRECTION ( 'NONE',  ( 0.0000000000000000000, 1.000000000000000000, 0.0000000000000000000 ) ) ;
#314 = CARTESIAN_POINT ( 'NONE',  ( 1.047444401652940007E-13, -3.673940397442059178E-15, 30.00000000000000000 ) ) ;
#315 = DIRECTION ( 'NONE',  ( 3.491481338843133355E-15, -1.224646799147353207E-16, 1.000000000000000000 ) ) ;
#316 = CALENDAR_DATE ( 2021, 3, 9 ) ;
#317 = PERSON_AND_ORGANIZATION ( #101, #245 ) ;
#318 = ORIENTED_EDGE ( 'NONE', *, *, #226, .F. ) ;
#319 = VECTOR ( 'NONE', #300, 1000.000000000000000 ) ;
#320 = EDGE_LOOP ( 'NONE', ( #318, #236 ) ) ;
#321 = PERSON_AND_ORGANIZATION_ROLE ( 'creator' ) ;
#322 = PERSON_AND_ORGANIZATION ( #101, #245 ) ;
#323 = ORIENTED_EDGE ( 'NONE', *, *, #100, .F. ) ;
#324 = COORDINATED_UNIVERSAL_TIME_OFFSET ( 1, 0, .AHEAD. ) ;
#325 = DIRECTION ( 'NONE',  ( -3.491481338843133355E-15, 1.224646799147353207E-16, -1.000000000000000000 ) ) ;
#326 = ORIENTED_EDGE ( 'NONE', *, *, #260, .T. ) ;
#327 = DIRECTION ( 'NONE',  ( 0.0000000000000000000, 1.000000000000000000, 0.0000000000000000000 ) ) ;
#328 = EDGE_CURVE ( 'NONE', #140, #179, #160, .T. ) ;
#329 = FACE_OUTER_BOUND ( 'NONE', #1, .T. ) ;
#330 = LOCAL_TIME ( 9, 21, 30.00000000000000000, #269 ) ;
#331 = EDGE_LOOP ( 'NONE', ( #133, #326 ) ) ;
#332 = FACE_OUTER_BOUND ( 'NONE', #320, .T. ) ;
#333 = LINE ( 'NONE', #281, #131 ) ;
#334 = CC_DESIGN_PERSON_AND_ORGANIZATION_ASSIGNMENT ( #125, #223, ( #80 ) ) ;
#335 = DIRECTION ( 'NONE',  ( -3.491481338843133355E-15, 1.224646799147353207E-16, -1.000000000000000000 ) ) ;
#336 = AXIS2_PLACEMENT_3D ( 'NONE', #206, #51, #296 ) ;
#337 = FACE_OUTER_BOUND ( 'NONE', #7, .T. ) ;
ENDSEC;
END-ISO-10303-21;
