ISO-10303-21;
HEADER;
FILE_DESCRIPTION (( 'STEP AP203' ),
    '1' );
FILE_NAME ('249.step',
    '2021-09-03T07:21:30',
    ( '' ),
    ( '' ),
    'SwSTEP 2.0',
    'SolidWorks 2019',
    '' );
FILE_SCHEMA (( 'CONFIG_CONTROL_DESIGN' ));
ENDSEC;

DATA;
#1 = CARTESIAN_POINT ( 'NONE',  ( 6.271189105320615526E-14, -0.3250000000000037303, 29.89999999999999858 ) ) ;
#2 = APPROVAL_STATUS ( 'not_yet_approved' ) ;
#3 = PERSON_AND_ORGANIZATION ( #178, #172 ) ;
#4 = VERTEX_POINT ( 'NONE', #319 ) ;
#5 = CARTESIAN_POINT ( 'NONE',  ( 2.094888803305880013E-14, 2.437109646825485428E-33, 6.000000000000000000 ) ) ;
#6 = DIRECTION ( 'NONE',  ( -3.491481338843133355E-15, 1.224646799147353207E-16, -1.000000000000000000 ) ) ;
#7 = DIRECTION ( 'NONE',  ( -4.275831445896958607E-31, -1.000000000000000000, -1.224646799147353207E-16 ) ) ;
#8 = CC_DESIGN_PERSON_AND_ORGANIZATION_ASSIGNMENT ( #254, #19, ( #215 ) ) ;
#9 = DIRECTION ( 'NONE',  ( 4.275831445896958607E-31, 1.000000000000000000, 1.224646799147353207E-16 ) ) ;
#10 = LOCAL_TIME ( 9, 21, 30.00000000000000000, #87 ) ;
#11 = CARTESIAN_POINT ( 'NONE',  ( 6.818154325386491924E-16, -0.3249999999999962919, 0.1952797011839570163 ) ) ;
#12 = EDGE_CURVE ( 'NONE', #229, #299, #307, .T. ) ;
#13 = ORIENTED_EDGE ( 'NONE', *, *, #161, .F. ) ;
#14 = ORIENTED_EDGE ( 'NONE', *, *, #241, .T. ) ;
#15 =( NAMED_UNIT ( * ) SI_UNIT ( $, .STERADIAN. ) SOLID_ANGLE_UNIT ( ) );
#16 = EDGE_CURVE ( 'NONE', #69, #129, #109, .T. ) ;
#17 = PRODUCT ( '249', '249', '', ( #173 ) ) ;
#18 = VECTOR ( 'NONE', #116, 1000.000000000000114 ) ;
#19 = PERSON_AND_ORGANIZATION_ROLE ( 'design_supplier' ) ;
#20 = ADVANCED_FACE ( 'NONE', ( #27 ), #230, .F. ) ;
#21 = CARTESIAN_POINT ( 'NONE',  ( 1.043952920314096810E-13, -3.661693929450586610E-15, 29.89999999999999858 ) ) ;
#22 = EDGE_LOOP ( 'NONE', ( #139, #169, #152 ) ) ;
#23 = LOCAL_TIME ( 9, 21, 30.00000000000000000, #56 ) ;
#24 = ORIENTED_EDGE ( 'NONE', *, *, #59, .F. ) ;
#25 = DIRECTION ( 'NONE',  ( -4.275831445896958607E-31, -1.000000000000000000, -1.224646799147353207E-16 ) ) ;
#26 = PRODUCT_DEFINITION ( 'UNKNOWN', '', #215, #44 ) ;
#27 = FACE_OUTER_BOUND ( 'NONE', #114, .T. ) ;
#28 = ORIENTED_EDGE ( 'NONE', *, *, #298, .T. ) ;
#29 = DATE_TIME_ROLE ( 'creation_date' ) ;
#30 = CC_DESIGN_PERSON_AND_ORGANIZATION_ASSIGNMENT ( #121, #284, ( #294 ) ) ;
#31 = DIRECTION ( 'NONE',  ( 0.0000000000000000000, 1.000000000000000000, 0.0000000000000000000 ) ) ;
#32 = CARTESIAN_POINT ( 'NONE',  ( 1.047444401652940007E-13, 0.2249999999999963141, 30.00000000000000000 ) ) ;
#33 = CARTESIAN_POINT ( 'NONE',  ( 6.818154325386492910E-16, -2.391486609933845906E-17, 0.1952797011839570440 ) ) ;
#34 =( NAMED_UNIT ( * ) PLANE_ANGLE_UNIT ( ) SI_UNIT ( $, .RADIAN. ) );
#35 = ADVANCED_FACE ( 'NONE', ( #206 ), #325, .T. ) ;
#36 = LINE ( 'NONE', #236, #197 ) ;
#37 = CARTESIAN_POINT ( 'NONE',  ( 6.818154325386492910E-16, -2.391486609933845906E-17, 0.1952797011839570440 ) ) ;
#38 = ADVANCED_BREP_SHAPE_REPRESENTATION ( '249', ( #57, #174, #79 ), #297 ) ;
#39 = DIRECTION ( 'NONE',  ( -3.491481338843133355E-15, 1.224646799147353207E-16, -1.000000000000000000 ) ) ;
#40 = FACE_OUTER_BOUND ( 'NONE', #189, .T. ) ;
#41 = DIRECTION ( 'NONE',  ( -3.491481338843133355E-15, 1.224646799147353207E-16, -1.000000000000000000 ) ) ;
#42 = LOCAL_TIME ( 9, 21, 30.00000000000000000, #66 ) ;
#43 = ORIENTED_EDGE ( 'NONE', *, *, #334, .F. ) ;
#44 = DESIGN_CONTEXT ( 'detailed design', #251, 'design' ) ;
#45 = ADVANCED_FACE ( 'NONE', ( #181 ), #77, .T. ) ;
#46 = APPROVAL_DATE_TIME ( #105, #233 ) ;
#47 = ORIENTED_EDGE ( 'NONE', *, *, #85, .F. ) ;
#48 = DIRECTION ( 'NONE',  ( -2.962969145211166002E-31, -1.000000000000000000, -8.340016711427052663E-17 ) ) ;
#49 = CIRCLE ( 'NONE', #186, 0.3249999999999962919 ) ;
#50 = DIRECTION ( 'NONE',  ( -3.491481338843133355E-15, 1.224646799147353207E-16, -1.000000000000000000 ) ) ;
#51 = DIRECTION ( 'NONE',  ( 3.491481338843133355E-15, -1.224646799147353207E-16, 1.000000000000000000 ) ) ;
#52 = CIRCLE ( 'NONE', #175, 0.3249999999999970690 ) ;
#53 = CARTESIAN_POINT ( 'NONE',  ( 7.216164535109378986E-16, 0.3249999999999962919, 0.1952797011839570718 ) ) ;
#54 = DIRECTION ( 'NONE',  ( 0.0000000000000000000, 0.0000000000000000000, 1.000000000000000000 ) ) ;
#55 = FACE_OUTER_BOUND ( 'NONE', #259, .T. ) ;
#56 = COORDINATED_UNIVERSAL_TIME_OFFSET ( 1, 0, .AHEAD. ) ;
#57 = MANIFOLD_SOLID_BREP ( 'Corps-Déplacer/Copier1[1]', #170 ) ;
#58 = VERTEX_POINT ( 'NONE', #188 ) ;
#59 = EDGE_CURVE ( 'NONE', #220, #321, #225, .T. ) ;
#60 = DIRECTION ( 'NONE',  ( 1.000000000000000000, 0.0000000000000000000, 0.0000000000000000000 ) ) ;
#61 = DIRECTION ( 'NONE',  ( -3.491481338843133355E-15, 1.224646799147353207E-16, -1.000000000000000000 ) ) ;
#62 = CIRCLE ( 'NONE', #277, 0.3249999999999970690 ) ;
#63 = ORIENTED_EDGE ( 'NONE', *, *, #134, .F. ) ;
#64 = CALENDAR_DATE ( 2021, 3, 9 ) ;
#65 = CARTESIAN_POINT ( 'NONE',  ( 1.047444401652940007E-13, -3.673940397442059178E-15, 30.00000000000000000 ) ) ;
#66 = COORDINATED_UNIVERSAL_TIME_OFFSET ( 1, 0, .AHEAD. ) ;
#67 = DATE_AND_TIME ( #279, #263 ) ;
#68 = ORIENTED_EDGE ( 'NONE', *, *, #180, .F. ) ;
#69 = VERTEX_POINT ( 'NONE', #182 ) ;
#70 = APPROVAL_PERSON_ORGANIZATION ( #211, #233, #75 ) ;
#71 = FACE_OUTER_BOUND ( 'NONE', #243, .T. ) ;
#72 = PLANE ( 'NONE',  #95 ) ;
#73 = PRODUCT_RELATED_PRODUCT_CATEGORY ( 'detail', '', ( #17 ) ) ;
#74 = DIRECTION ( 'NONE',  ( 4.275831445896958607E-31, 1.000000000000000000, 1.224646799147353207E-16 ) ) ;
#75 = APPROVAL_ROLE ( '' ) ;
#76 = EDGE_LOOP ( 'NONE', ( #218, #13 ) ) ;
#77 = CYLINDRICAL_SURFACE ( 'NONE', #90, 0.3249999999999985123 ) ;
#78 = ORIENTED_EDGE ( 'NONE', *, *, #112, .T. ) ;
#79 = AXIS2_PLACEMENT_3D ( 'NONE', #224, #54, #60 ) ;
#80 = EDGE_LOOP ( 'NONE', ( #249, #333, #177, #63 ) ) ;
#81 = ORIENTED_EDGE ( 'NONE', *, *, #298, .F. ) ;
#82 = CARTESIAN_POINT ( 'NONE',  ( 1.389645219916497228E-31, 0.3249999999999966804, 3.980102097228857063E-17 ) ) ;
#83 = APPROVAL_PERSON_ORGANIZATION ( #304, #256, #115 ) ;
#84 = CARTESIAN_POINT ( 'NONE',  ( 6.818154325386492910E-16, -2.391486609933845906E-17, 0.1952797011839570440 ) ) ;
#85 = EDGE_CURVE ( 'NONE', #299, #229, #310, .T. ) ;
#86 = ORIENTED_EDGE ( 'NONE', *, *, #194, .F. ) ;
#87 = COORDINATED_UNIVERSAL_TIME_OFFSET ( 1, 0, .AHEAD. ) ;
#88 = CARTESIAN_POINT ( 'NONE',  ( 2.094888803305880013E-14, 0.3249999999999962919, 6.000000000000000000 ) ) ;
#89 = DIRECTION ( 'NONE',  ( 3.491481338843133355E-15, -1.224646799147353207E-16, 1.000000000000000000 ) ) ;
#90 = AXIS2_PLACEMENT_3D ( 'NONE', #273, #337, #245 ) ;
#91 = DIRECTION ( 'NONE',  ( 0.0000000000000000000, 1.000000000000000000, 0.0000000000000000000 ) ) ;
#92 = CARTESIAN_POINT ( 'NONE',  ( 1.043952920314096810E-13, 0.3249999999999962919, 29.89999999999999858 ) ) ;
#93 = DATE_AND_TIME ( #122, #42 ) ;
#94 = LINE ( 'NONE', #312, #289 ) ;
#95 = AXIS2_PLACEMENT_3D ( 'NONE', #306, #89, #7 ) ;
#96 = CC_DESIGN_PERSON_AND_ORGANIZATION_ASSIGNMENT ( #3, #210, ( #26 ) ) ;
#97 = ORIENTED_EDGE ( 'NONE', *, *, #286, .T. ) ;
#98 = APPROVAL_STATUS ( 'not_yet_approved' ) ;
#99 = ORIENTED_EDGE ( 'NONE', *, *, #185, .T. ) ;
#100 = AXIS2_PLACEMENT_3D ( 'NONE', #165, #125, #118 ) ;
#101 = EDGE_CURVE ( 'NONE', #321, #220, #127, .T. ) ;
#102 = DIRECTION ( 'NONE',  ( -3.491481338843133355E-15, 1.224646799147353207E-16, -1.000000000000000000 ) ) ;
#103 = DIRECTION ( 'NONE',  ( -3.491481338843133355E-15, 1.224646799147353207E-16, -1.000000000000000000 ) ) ;
#104 = UNCERTAINTY_MEASURE_WITH_UNIT (LENGTH_MEASURE( 1.000000000000000082E-05 ), #216, 'distance_accuracy_value', 'NONE');
#105 = DATE_AND_TIME ( #335, #295 ) ;
#106 = AXIS2_PLACEMENT_3D ( 'NONE', #21, #238, #195 ) ;
#107 = CARTESIAN_POINT ( 'NONE',  ( 2.094888803305880013E-14, 0.3249999999999962919, 6.000000000000000000 ) ) ;
#108 = DIRECTION ( 'NONE',  ( -3.491481338843133355E-15, 1.224646799147353207E-16, -1.000000000000000000 ) ) ;
#109 = LINE ( 'NONE', #53, #196 ) ;
#110 = CARTESIAN_POINT ( 'NONE',  ( 1.047444401652940007E-13, 0.2249999999999963141, 30.00000000000000000 ) ) ;
#111 = SHAPE_DEFINITION_REPRESENTATION ( #153, #38 ) ;
#112 = EDGE_CURVE ( 'NONE', #240, #4, #198, .T. ) ;
#113 = CONICAL_SURFACE ( 'NONE', #227, 0.3249999999999962919, 1.029744258676649649 ) ;
#114 = EDGE_LOOP ( 'NONE', ( #150, #24 ) ) ;
#115 = APPROVAL_ROLE ( '' ) ;
#116 = DIRECTION ( 'NONE',  ( -2.468850131082257455E-15, 0.7071067811865497932, -0.7071067811865453523 ) ) ;
#117 = COORDINATED_UNIVERSAL_TIME_OFFSET ( 1, 0, .AHEAD. ) ;
#118 = DIRECTION ( 'NONE',  ( 0.0000000000000000000, 1.000000000000000000, 0.0000000000000000000 ) ) ;
#119 = CC_DESIGN_APPROVAL ( #233, ( #215 ) ) ;
#120 = AXIS2_PLACEMENT_3D ( 'NONE', #217, #193, #146 ) ;
#121 = PERSON_AND_ORGANIZATION ( #178, #172 ) ;
#122 = CALENDAR_DATE ( 2021, 3, 9 ) ;
#123 = APPLICATION_PROTOCOL_DEFINITION ( 'international standard', 'config_control_design', 1994, #314 ) ;
#124 = ORIENTED_EDGE ( 'NONE', *, *, #241, .F. ) ;
#125 = DIRECTION ( 'NONE',  ( -3.491481338843133355E-15, 1.224646799147353207E-16, -1.000000000000000000 ) ) ;
#126 = DIRECTION ( 'NONE',  ( 4.275831445896958607E-31, 1.000000000000000000, 1.224646799147353207E-16 ) ) ;
#127 = CIRCLE ( 'NONE', #246, 0.2250000000000000056 ) ;
#128 = DIRECTION ( 'NONE',  ( 2.962969145211166002E-31, 1.000000000000000000, 8.340016711427052663E-17 ) ) ;
#129 = VERTEX_POINT ( 'NONE', #311 ) ;
#130 = ORIENTED_EDGE ( 'NONE', *, *, #286, .F. ) ;
#131 = CC_DESIGN_APPROVAL ( #256, ( #294 ) ) ;
#132 = ORIENTED_EDGE ( 'NONE', *, *, #334, .T. ) ;
#133 = APPROVAL_DATE_TIME ( #67, #256 ) ;
#134 = EDGE_CURVE ( 'NONE', #58, #129, #331, .T. ) ;
#135 = PERSON_AND_ORGANIZATION ( #178, #172 ) ;
#136 = AXIS2_PLACEMENT_3D ( 'NONE', #327, #50, #160 ) ;
#137 = AXIS2_PLACEMENT_3D ( 'NONE', #213, #108, #91 ) ;
#138 = CARTESIAN_POINT ( 'NONE',  ( 2.094888803305880013E-14, -7.347880794884119736E-16, 6.000000000000000000 ) ) ;
#139 = ORIENTED_EDGE ( 'NONE', *, *, #264, .F. ) ;
#140 = APPLICATION_PROTOCOL_DEFINITION ( 'international standard', 'config_control_design', 1994, #251 ) ;
#141 = DATE_AND_TIME ( #144, #10 ) ;
#142 = DIRECTION ( 'NONE',  ( 0.0000000000000000000, 1.000000000000000000, 0.0000000000000000000 ) ) ;
#143 = AXIS2_PLACEMENT_3D ( 'NONE', #184, #103, #163 ) ;
#144 = CALENDAR_DATE ( 2021, 3, 9 ) ;
#145 = DIRECTION ( 'NONE',  ( -3.491481338843133355E-15, 1.224646799147353207E-16, -1.000000000000000000 ) ) ;
#146 = DIRECTION ( 'NONE',  ( 0.0000000000000000000, 1.000000000000000000, 0.0000000000000000000 ) ) ;
#147 = DIRECTION ( 'NONE',  ( 3.491481338843133355E-15, -1.224646799147353207E-16, 1.000000000000000000 ) ) ;
#148 = AXIS2_PLACEMENT_3D ( 'NONE', #203, #324, #74 ) ;
#149 = AXIS2_PLACEMENT_3D ( 'NONE', #5, #51, #25 ) ;
#150 = ORIENTED_EDGE ( 'NONE', *, *, #101, .F. ) ;
#151 = DIRECTION ( 'NONE',  ( -3.491481338843133355E-15, 1.224646799147353207E-16, -1.000000000000000000 ) ) ;
#152 = ORIENTED_EDGE ( 'NONE', *, *, #194, .T. ) ;
#153 = PRODUCT_DEFINITION_SHAPE ( 'NONE', 'NONE',  #26 ) ;
#154 = AXIS2_PLACEMENT_3D ( 'NONE', #258, #199, #290 ) ;
#155 = AXIS2_PLACEMENT_3D ( 'NONE', #271, #102, #204 ) ;
#156 = FACE_OUTER_BOUND ( 'NONE', #22, .T. ) ;
#157 = VERTEX_POINT ( 'NONE', #209 ) ;
#158 = CONICAL_SURFACE ( 'NONE', #336, 0.3249999999999962919, 1.029744258676649649 ) ;
#159 = ORIENTED_EDGE ( 'NONE', *, *, #180, .T. ) ;
#160 = DIRECTION ( 'NONE',  ( 0.0000000000000000000, 1.000000000000000000, 0.0000000000000000000 ) ) ;
#161 = EDGE_CURVE ( 'NONE', #4, #240, #52, .T. ) ;
#162 = ORIENTED_EDGE ( 'NONE', *, *, #328, .F. ) ;
#163 = DIRECTION ( 'NONE',  ( 4.275831445896958607E-31, 1.000000000000000000, 1.224646799147353207E-16 ) ) ;
#164 = VECTOR ( 'NONE', #39, 1000.000000000000000 ) ;
#165 = CARTESIAN_POINT ( 'NONE',  ( 2.094888803305880013E-14, -7.347880794884119736E-16, 6.000000000000000000 ) ) ;
#166 = ADVANCED_FACE ( 'NONE', ( #71 ), #285, .T. ) ;
#167 = DIRECTION ( 'NONE',  ( 1.903218546456022717E-15, 0.8571673007021097801, 0.5150380749100585964 ) ) ;
#168 = DIRECTION ( 'NONE',  ( -3.491481338843133355E-15, 1.224646799147353207E-16, -1.000000000000000000 ) ) ;
#169 = ORIENTED_EDGE ( 'NONE', *, *, #16, .T. ) ;
#170 = CLOSED_SHELL ( 'NONE', ( #191, #166, #301, #45, #212, #20 ) ) ;
#171 = CARTESIAN_POINT ( 'NONE',  ( 1.389645219916505110E-31, 0.3249999999999985123, 3.980102097228879866E-17 ) ) ;
#172 = ORGANIZATION ( 'UNSPECIFIED', 'UNSPECIFIED', '' ) ;
#173 = MECHANICAL_CONTEXT ( 'NONE', #314, 'mechanical' ) ;
#174 = MANIFOLD_SOLID_BREP ( 'Corps-Déplacer/Copier1[2]', #282 ) ;
#175 = AXIS2_PLACEMENT_3D ( 'NONE', #255, #61, #326 ) ;
#176 = CARTESIAN_POINT ( 'NONE',  ( 0.0000000000000000000, 0.0000000000000000000, 0.0000000000000000000 ) ) ;
#177 = ORIENTED_EDGE ( 'NONE', *, *, #328, .T. ) ;
#178 = PERSON ( 'UNSPECIFIED', 'UNSPECIFIED', 'UNSPECIFIED', ('UNSPECIFIED'), ('UNSPECIFIED'), ('UNSPECIFIED') ) ;
#179 = CC_DESIGN_APPROVAL ( #244, ( #26 ) ) ;
#180 = EDGE_CURVE ( 'NONE', #157, #300, #235, .T. ) ;
#181 = FACE_OUTER_BOUND ( 'NONE', #231, .T. ) ;
#182 = CARTESIAN_POINT ( 'NONE',  ( 0.0000000000000000000, 0.0000000000000000000, 0.0000000000000000000 ) ) ;
#183 = PERSON_AND_ORGANIZATION ( #178, #172 ) ;
#184 = CARTESIAN_POINT ( 'NONE',  ( 0.0000000000000000000, 0.0000000000000000000, 0.0000000000000000000 ) ) ;
#185 = EDGE_CURVE ( 'NONE', #4, #58, #94, .T. ) ;
#186 = AXIS2_PLACEMENT_3D ( 'NONE', #84, #6, #274 ) ;
#187 = COORDINATED_UNIVERSAL_TIME_OFFSET ( 1, 0, .AHEAD. ) ;
#188 = CARTESIAN_POINT ( 'NONE',  ( 6.818154325386491924E-16, -0.3249999999999962919, 0.1952797011839570163 ) ) ;
#189 = EDGE_LOOP ( 'NONE', ( #222, #132, #214, #130 ) ) ;
#190 = CONICAL_SURFACE ( 'NONE', #155, 0.2250000000000000056, 0.7853981633974512766 ) ;
#191 = ADVANCED_FACE ( 'NONE', ( #40 ), #190, .T. ) ;
#192 = APPROVAL_STATUS ( 'not_yet_approved' ) ;
#193 = DIRECTION ( 'NONE',  ( -3.491481338843133355E-15, 1.224646799147353207E-16, -1.000000000000000000 ) ) ;
#194 = EDGE_CURVE ( 'NONE', #129, #58, #49, .T. ) ;
#195 = DIRECTION ( 'NONE',  ( 0.0000000000000000000, 1.000000000000000000, 0.0000000000000000000 ) ) ;
#196 = VECTOR ( 'NONE', #167, 999.9999999999998863 ) ;
#197 = VECTOR ( 'NONE', #145, 1000.000000000000000 ) ;
#198 = CIRCLE ( 'NONE', #100, 0.3249999999999970690 ) ;
#199 = DIRECTION ( 'NONE',  ( -3.491481338843133355E-15, 1.224646799147353207E-16, -1.000000000000000000 ) ) ;
#200 = CC_DESIGN_DATE_AND_TIME_ASSIGNMENT ( #141, #237, ( #294 ) ) ;
#201 = VECTOR ( 'NONE', #315, 1000.000000000000000 ) ;
#202 = CARTESIAN_POINT ( 'NONE',  ( 6.818154325386492910E-16, -2.391486609933845906E-17, 0.1952797011839570440 ) ) ;
#203 = CARTESIAN_POINT ( 'NONE',  ( 1.047444401652940007E-13, 1.687229755494534386E-33, 30.00000000000000000 ) ) ;
#204 = DIRECTION ( 'NONE',  ( 0.0000000000000000000, 1.000000000000000000, 0.0000000000000000000 ) ) ;
#205 = PERSON_AND_ORGANIZATION ( #178, #172 ) ;
#206 = FACE_OUTER_BOUND ( 'NONE', #80, .T. ) ;
#207 = VECTOR ( 'NONE', #239, 1000.000000000000114 ) ;
#208 = FACE_OUTER_BOUND ( 'NONE', #323, .T. ) ;
#209 = CARTESIAN_POINT ( 'NONE',  ( 6.271189105320643294E-14, -0.3249999999999977907, 6.000000000000000000 ) ) ;
#210 = PERSON_AND_ORGANIZATION_ROLE ( 'creator' ) ;
#211 = PERSON_AND_ORGANIZATION ( #178, #172 ) ;
#212 = ADVANCED_FACE ( 'NONE', ( #208 ), #232, .T. ) ;
#213 = CARTESIAN_POINT ( 'NONE',  ( 2.094888803305880013E-14, -7.347880794884119736E-16, 6.000000000000000000 ) ) ;
#214 = ORIENTED_EDGE ( 'NONE', *, *, #12, .F. ) ;
#215 = PRODUCT_DEFINITION_FORMATION_WITH_SPECIFIED_SOURCE ( 'ANY', '', #17, .NOT_KNOWN. ) ;
#216 =( LENGTH_UNIT ( ) NAMED_UNIT ( * ) SI_UNIT ( .MILLI., .METRE. ) );
#217 = CARTESIAN_POINT ( 'NONE',  ( 1.047444401652940007E-13, -3.673940397442059178E-15, 30.00000000000000000 ) ) ;
#218 = ORIENTED_EDGE ( 'NONE', *, *, #112, .F. ) ;
#219 = ORIENTED_EDGE ( 'NONE', *, *, #264, .T. ) ;
#220 = VERTEX_POINT ( 'NONE', #269 ) ;
#221 = DIRECTION ( 'NONE',  ( -3.491481338843133355E-15, 1.224646799147353207E-16, -1.000000000000000000 ) ) ;
#222 = ORIENTED_EDGE ( 'NONE', *, *, #101, .T. ) ;
#223 = ADVANCED_FACE ( 'NONE', ( #330 ), #113, .T. ) ;
#224 = CARTESIAN_POINT ( 'NONE',  ( 0.0000000000000000000, 0.0000000000000000000, 0.0000000000000000000 ) ) ;
#225 = CIRCLE ( 'NONE', #136, 0.2250000000000000056 ) ;
#226 = ORIENTED_EDGE ( 'NONE', *, *, #59, .T. ) ;
#227 = AXIS2_PLACEMENT_3D ( 'NONE', #202, #292, #48 ) ;
#228 = ADVANCED_FACE ( 'NONE', ( #156 ), #158, .T. ) ;
#229 = VERTEX_POINT ( 'NONE', #92 ) ;
#230 = PLANE ( 'NONE',  #148 ) ;
#231 = EDGE_LOOP ( 'NONE', ( #124, #234, #247, #68 ) ) ;
#232 = CONICAL_SURFACE ( 'NONE', #120, 0.2250000000000000056, 0.7853981633974512766 ) ;
#233 = APPROVAL ( #192, 'UNSPECIFIED' ) ;
#234 = ORIENTED_EDGE ( 'NONE', *, *, #85, .T. ) ;
#235 = CIRCLE ( 'NONE', #137, 0.3249999999999970690 ) ;
#236 = CARTESIAN_POINT ( 'NONE',  ( 3.980102097228866307E-17, -0.3249999999999985123, -3.980102097228893424E-17 ) ) ;
#237 = DATE_TIME_ROLE ( 'classification_date' ) ;
#238 = DIRECTION ( 'NONE',  ( -3.491481338843133355E-15, 1.224646799147353207E-16, -1.000000000000000000 ) ) ;
#239 = DIRECTION ( 'NONE',  ( -2.382254525458708792E-15, -0.7071067811865495711, -0.7071067811865455743 ) ) ;
#240 = VERTEX_POINT ( 'NONE', #88 ) ;
#241 = EDGE_CURVE ( 'NONE', #299, #157, #36, .T. ) ;
#242 = APPROVAL_PERSON_ORGANIZATION ( #183, #244, #309 ) ;
#243 = EDGE_LOOP ( 'NONE', ( #276, #14, #81, #281 ) ) ;
#244 = APPROVAL ( #2, 'UNSPECIFIED' ) ;
#245 = DIRECTION ( 'NONE',  ( 4.275831445896958607E-31, 1.000000000000000000, 1.224646799147353207E-16 ) ) ;
#246 = AXIS2_PLACEMENT_3D ( 'NONE', #65, #260, #31 ) ;
#247 = ORIENTED_EDGE ( 'NONE', *, *, #296, .T. ) ;
#248 = PERSON_AND_ORGANIZATION_ROLE ( 'design_owner' ) ;
#249 = ORIENTED_EDGE ( 'NONE', *, *, #185, .F. ) ;
#250 = CC_DESIGN_PERSON_AND_ORGANIZATION_ASSIGNMENT ( #135, #268, ( #215 ) ) ;
#251 = APPLICATION_CONTEXT ( 'configuration controlled 3d designs of mechanical parts and assemblies' ) ;
#252 = LINE ( 'NONE', #32, #18 ) ;
#253 = PLANE ( 'NONE',  #149 ) ;
#254 = PERSON_AND_ORGANIZATION ( #178, #172 ) ;
#255 = CARTESIAN_POINT ( 'NONE',  ( 2.094888803305880013E-14, -7.347880794884119736E-16, 6.000000000000000000 ) ) ;
#256 = APPROVAL ( #98, 'UNSPECIFIED' ) ;
#257 = DATE_AND_TIME ( #64, #23 ) ;
#258 = CARTESIAN_POINT ( 'NONE',  ( 1.043952920314096810E-13, -3.661693929450586610E-15, 29.89999999999999858 ) ) ;
#259 = EDGE_LOOP ( 'NONE', ( #78, #99, #86, #162 ) ) ;
#260 = DIRECTION ( 'NONE',  ( -3.491481338843133355E-15, 1.224646799147353207E-16, -1.000000000000000000 ) ) ;
#261 = LINE ( 'NONE', #171, #272 ) ;
#262 = CC_DESIGN_PERSON_AND_ORGANIZATION_ASSIGNMENT ( #205, #248, ( #17 ) ) ;
#263 = LOCAL_TIME ( 9, 21, 30.00000000000000000, #117 ) ;
#264 = EDGE_CURVE ( 'NONE', #69, #58, #280, .T. ) ;
#265 = CARTESIAN_POINT ( 'NONE',  ( 0.0000000000000000000, 0.0000000000000000000, 0.0000000000000000000 ) ) ;
#266 = FACE_OUTER_BOUND ( 'NONE', #76, .T. ) ;
#267 = CC_DESIGN_DATE_AND_TIME_ASSIGNMENT ( #257, #29, ( #26 ) ) ;
#268 = PERSON_AND_ORGANIZATION_ROLE ( 'creator' ) ;
#269 = CARTESIAN_POINT ( 'NONE',  ( 1.046035438853283861E-13, -0.2250000000000036693, 30.00000000000000000 ) ) ;
#270 = EDGE_LOOP ( 'NONE', ( #28, #159 ) ) ;
#271 = CARTESIAN_POINT ( 'NONE',  ( 1.047444401652940007E-13, -3.673940397442059178E-15, 30.00000000000000000 ) ) ;
#272 = VECTOR ( 'NONE', #287, 1000.000000000000000 ) ;
#273 = CARTESIAN_POINT ( 'NONE',  ( 0.0000000000000000000, 0.0000000000000000000, 0.0000000000000000000 ) ) ;
#274 = DIRECTION ( 'NONE',  ( 2.962969145211166002E-31, 1.000000000000000000, 8.340016711427052663E-17 ) ) ;
#275 = FACE_OUTER_BOUND ( 'NONE', #270, .T. ) ;
#276 = ORIENTED_EDGE ( 'NONE', *, *, #12, .T. ) ;
#277 = AXIS2_PLACEMENT_3D ( 'NONE', #138, #168, #142 ) ;
#278 = ADVANCED_FACE ( 'NONE', ( #55 ), #288, .T. ) ;
#279 = CALENDAR_DATE ( 2021, 3, 9 ) ;
#280 = LINE ( 'NONE', #11, #201 ) ;
#281 = ORIENTED_EDGE ( 'NONE', *, *, #296, .F. ) ;
#282 = CLOSED_SHELL ( 'NONE', ( #278, #228, #223, #35, #291 ) ) ;
#283 = AXIS2_PLACEMENT_3D ( 'NONE', #176, #41, #9 ) ;
#284 = PERSON_AND_ORGANIZATION_ROLE ( 'classification_officer' ) ;
#285 = CYLINDRICAL_SURFACE ( 'NONE', #283, 0.3249999999999985123 ) ;
#286 = EDGE_CURVE ( 'NONE', #321, #229, #252, .T. ) ;
#287 = DIRECTION ( 'NONE',  ( -3.491481338843133355E-15, 1.224646799147353207E-16, -1.000000000000000000 ) ) ;
#288 = CYLINDRICAL_SURFACE ( 'NONE', #143, 0.3249999999999966804 ) ;
#289 = VECTOR ( 'NONE', #151, 1000.000000000000000 ) ;
#290 = DIRECTION ( 'NONE',  ( 0.0000000000000000000, 1.000000000000000000, 0.0000000000000000000 ) ) ;
#291 = ADVANCED_FACE ( 'NONE', ( #266 ), #72, .T. ) ;
#292 = DIRECTION ( 'NONE',  ( 3.491481338843133355E-15, -1.224646799147353207E-16, 1.000000000000000000 ) ) ;
#293 = EDGE_LOOP ( 'NONE', ( #332, #219, #318 ) ) ;
#294 = SECURITY_CLASSIFICATION ( '', '', #308 ) ;
#295 = LOCAL_TIME ( 9, 21, 30.00000000000000000, #187 ) ;
#296 = EDGE_CURVE ( 'NONE', #229, #300, #261, .T. ) ;
#297 =( GEOMETRIC_REPRESENTATION_CONTEXT ( 3 ) GLOBAL_UNCERTAINTY_ASSIGNED_CONTEXT ( ( #104 ) ) GLOBAL_UNIT_ASSIGNED_CONTEXT ( ( #216, #34, #15 ) ) REPRESENTATION_CONTEXT ( 'NONE', 'WORKASPACE' ) );
#298 = EDGE_CURVE ( 'NONE', #300, #157, #62, .T. ) ;
#299 = VERTEX_POINT ( 'NONE', #1 ) ;
#300 = VERTEX_POINT ( 'NONE', #107 ) ;
#301 = ADVANCED_FACE ( 'NONE', ( #275 ), #253, .F. ) ;
#302 = LINE ( 'NONE', #82, #164 ) ;
#303 = CC_DESIGN_SECURITY_CLASSIFICATION ( #294, ( #215 ) ) ;
#304 = PERSON_AND_ORGANIZATION ( #178, #172 ) ;
#305 = APPROVAL_DATE_TIME ( #93, #244 ) ;
#306 = CARTESIAN_POINT ( 'NONE',  ( 2.094888803305880013E-14, 2.437109646825485428E-33, 6.000000000000000000 ) ) ;
#307 = CIRCLE ( 'NONE', #154, 0.3250000000000000111 ) ;
#308 = SECURITY_CLASSIFICATION_LEVEL ( 'unclassified' ) ;
#309 = APPROVAL_ROLE ( '' ) ;
#310 = CIRCLE ( 'NONE', #106, 0.3250000000000000111 ) ;
#311 = CARTESIAN_POINT ( 'NONE',  ( 7.216164535109379972E-16, 0.3249999999999962919, 0.1952797011839570718 ) ) ;
#312 = CARTESIAN_POINT ( 'NONE',  ( 3.980102097228843504E-17, -0.3249999999999966804, -3.980102097228870621E-17 ) ) ;
#313 = DIRECTION ( 'NONE',  ( -2.962969145211166002E-31, -1.000000000000000000, -8.340016711427052663E-17 ) ) ;
#314 = APPLICATION_CONTEXT ( 'configuration controlled 3d designs of mechanical parts and assemblies' ) ;
#315 = DIRECTION ( 'NONE',  ( 1.798245827342160317E-15, -0.8571673007021098911, 0.5150380749100582634 ) ) ;
#316 = DIRECTION ( 'NONE',  ( -3.491481338843133355E-15, 1.224646799147353207E-16, -1.000000000000000000 ) ) ;
#317 = CARTESIAN_POINT ( 'NONE',  ( 1.047719947182748167E-13, -0.2250000000000036693, 30.00000000000000000 ) ) ;
#318 = ORIENTED_EDGE ( 'NONE', *, *, #134, .T. ) ;
#319 = CARTESIAN_POINT ( 'NONE',  ( 1.085515275377098941E-14, -0.3249999999999978462, 6.000000000000000000 ) ) ;
#320 = AXIS2_PLACEMENT_3D ( 'NONE', #37, #316, #128 ) ;
#321 = VERTEX_POINT ( 'NONE', #110 ) ;
#322 = LINE ( 'NONE', #317, #207 ) ;
#323 = EDGE_LOOP ( 'NONE', ( #43, #226, #97, #47 ) ) ;
#324 = DIRECTION ( 'NONE',  ( -3.491481338843133355E-15, 1.224646799147353207E-16, -1.000000000000000000 ) ) ;
#325 = CYLINDRICAL_SURFACE ( 'NONE', #329, 0.3249999999999966804 ) ;
#326 = DIRECTION ( 'NONE',  ( 0.0000000000000000000, 1.000000000000000000, 0.0000000000000000000 ) ) ;
#327 = CARTESIAN_POINT ( 'NONE',  ( 1.047444401652940007E-13, -3.673940397442059178E-15, 30.00000000000000000 ) ) ;
#328 = EDGE_CURVE ( 'NONE', #240, #129, #302, .T. ) ;
#329 = AXIS2_PLACEMENT_3D ( 'NONE', #265, #221, #126 ) ;
#330 = FACE_OUTER_BOUND ( 'NONE', #293, .T. ) ;
#331 = CIRCLE ( 'NONE', #320, 0.3249999999999962919 ) ;
#332 = ORIENTED_EDGE ( 'NONE', *, *, #16, .F. ) ;
#333 = ORIENTED_EDGE ( 'NONE', *, *, #161, .T. ) ;
#334 = EDGE_CURVE ( 'NONE', #220, #299, #322, .T. ) ;
#335 = CALENDAR_DATE ( 2021, 3, 9 ) ;
#336 = AXIS2_PLACEMENT_3D ( 'NONE', #33, #147, #313 ) ;
#337 = DIRECTION ( 'NONE',  ( -3.491481338843133355E-15, 1.224646799147353207E-16, -1.000000000000000000 ) ) ;
ENDSEC;
END-ISO-10303-21;
