ISO-10303-21;
HEADER;
FILE_DESCRIPTION (( 'STEP AP203' ),
    '1' );
FILE_NAME ('24828.step',
    '2021-09-03T07:21:29',
    ( '' ),
    ( '' ),
    'SwSTEP 2.0',
    'SolidWorks 2019',
    '' );
FILE_SCHEMA (( 'CONFIG_CONTROL_DESIGN' ));
ENDSEC;

DATA;
#1 = EDGE_CURVE ( 'NONE', #54, #68, #183, .T. ) ;
#2 = DIRECTION ( 'NONE',  ( -3.491481338843133355E-15, 1.224646799147353207E-16, -1.000000000000000000 ) ) ;
#3 = APPLICATION_CONTEXT ( 'configuration controlled 3d designs of mechanical parts and assemblies' ) ;
#4 = DIRECTION ( 'NONE',  ( 0.0000000000000000000, 1.000000000000000000, 0.0000000000000000000 ) ) ;
#5 = DATE_TIME_ROLE ( 'creation_date' ) ;
#6 = VERTEX_POINT ( 'NONE', #173 ) ;
#7 = DIRECTION ( 'NONE',  ( -3.491481338843133355E-15, 1.224646799147353207E-16, -1.000000000000000000 ) ) ;
#8 = ORIENTED_EDGE ( 'NONE', *, *, #148, .F. ) ;
#9 = CC_DESIGN_PERSON_AND_ORGANIZATION_ASSIGNMENT ( #114, #273, ( #19 ) ) ;
#10 = EDGE_LOOP ( 'NONE', ( #65, #262, #119, #29 ) ) ;
#11 = ORIENTED_EDGE ( 'NONE', *, *, #15, .F. ) ;
#12 = LINE ( 'NONE', #293, #242 ) ;
#13 = ORIENTED_EDGE ( 'NONE', *, *, #266, .F. ) ;
#14 = VERTEX_POINT ( 'NONE', #251 ) ;
#15 = EDGE_CURVE ( 'NONE', #285, #149, #52, .T. ) ;
#16 = FACE_OUTER_BOUND ( 'NONE', #248, .T. ) ;
#17 = EDGE_CURVE ( 'NONE', #285, #127, #296, .T. ) ;
#18 = DIRECTION ( 'NONE',  ( -3.491481338843133355E-15, 1.224646799147353207E-16, -1.000000000000000000 ) ) ;
#19 = SECURITY_CLASSIFICATION ( '', '', #138 ) ;
#20 = FACE_OUTER_BOUND ( 'NONE', #310, .T. ) ;
#21 = EDGE_CURVE ( 'NONE', #14, #68, #61, .T. ) ;
#22 = DATE_AND_TIME ( #275, #193 ) ;
#23 = PERSON_AND_ORGANIZATION ( #190, #56 ) ;
#24 = DIRECTION ( 'NONE',  ( 3.491481338843133355E-15, -1.224646799147353207E-16, 1.000000000000000000 ) ) ;
#25 = CARTESIAN_POINT ( 'NONE',  ( 1.047444401652940007E-13, -3.673940397442059178E-15, 30.00000000000000000 ) ) ;
#26 = ADVANCED_FACE ( 'NONE', ( #133 ), #135, .T. ) ;
#27 = LOCAL_TIME ( 9, 21, 29.00000000000000000, #55 ) ;
#28 = APPROVAL_ROLE ( '' ) ;
#29 = ORIENTED_EDGE ( 'NONE', *, *, #17, .F. ) ;
#30 = ORIENTED_EDGE ( 'NONE', *, *, #83, .F. ) ;
#31 = ORIENTED_EDGE ( 'NONE', *, *, #245, .T. ) ;
#32 = FACE_OUTER_BOUND ( 'NONE', #231, .T. ) ;
#33 = ORIENTED_EDGE ( 'NONE', *, *, #266, .T. ) ;
#34 = ORIENTED_EDGE ( 'NONE', *, *, #83, .T. ) ;
#35 = DIRECTION ( 'NONE',  ( -3.491481338843133355E-15, 1.224646799147353207E-16, -1.000000000000000000 ) ) ;
#36 = ADVANCED_FACE ( 'NONE', ( #269 ), #77, .T. ) ;
#37 = AXIS2_PLACEMENT_3D ( 'NONE', #192, #331, #107 ) ;
#38 = DIRECTION ( 'NONE',  ( -3.491481338843133355E-15, 1.224646799147353207E-16, -1.000000000000000000 ) ) ;
#39 = APPROVAL_PERSON_ORGANIZATION ( #70, #332, #28 ) ;
#40 = CARTESIAN_POINT ( 'NONE',  ( 1.745740669421566678E-14, 1.124819836996361218E-33, 5.000000000000000000 ) ) ;
#41 = ADVANCED_BREP_SHAPE_REPRESENTATION ( '24828', ( #278, #177, #315 ), #140 ) ;
#42 = CARTESIAN_POINT ( 'NONE',  ( 1.745740669421566678E-14, -6.123233995736766282E-16, 5.000000000000000000 ) ) ;
#43 = DIRECTION ( 'NONE',  ( -3.491481338843133355E-15, 1.224646799147353207E-16, -1.000000000000000000 ) ) ;
#44 = CARTESIAN_POINT ( 'NONE',  ( 1.745740669421566678E-14, 0.1499999999999963307, 5.000000000000000000 ) ) ;
#45 = VECTOR ( 'NONE', #75, 1000.000000000000114 ) ;
#46 = ORIENTED_EDGE ( 'NONE', *, *, #148, .T. ) ;
#47 = CARTESIAN_POINT ( 'NONE',  ( 3.146840457870647468E-16, -0.1499999999999963307, 0.09012909285413282789 ) ) ;
#48 = EDGE_CURVE ( 'NONE', #127, #237, #299, .T. ) ;
#49 = UNCERTAINTY_MEASURE_WITH_UNIT (LENGTH_MEASURE( 1.000000000000000082E-05 ), #197, 'distance_accuracy_value', 'NONE');
#50 = DIRECTION ( 'NONE',  ( -3.491481338843133355E-15, 1.224646799147353207E-16, -1.000000000000000000 ) ) ;
#51 = COORDINATED_UNIVERSAL_TIME_OFFSET ( 1, 0, .AHEAD. ) ;
#52 = CIRCLE ( 'NONE', #259, 0.05000000000000000971 ) ;
#53 = FACE_OUTER_BOUND ( 'NONE', #208, .T. ) ;
#54 = VERTEX_POINT ( 'NONE', #194 ) ;
#55 = COORDINATED_UNIVERSAL_TIME_OFFSET ( 1, 0, .AHEAD. ) ;
#56 = ORGANIZATION ( 'UNSPECIFIED', 'UNSPECIFIED', '' ) ;
#57 = CARTESIAN_POINT ( 'NONE',  ( 1.047444401652940007E-13, -3.673940397442059178E-15, 30.00000000000000000 ) ) ;
#58 = DIRECTION ( 'NONE',  ( 3.491481338843133355E-15, -1.224646799147353207E-16, 1.000000000000000000 ) ) ;
#59 = DATE_AND_TIME ( #265, #291 ) ;
#60 = ORIENTED_EDGE ( 'NONE', *, *, #1, .T. ) ;
#61 = CIRCLE ( 'NONE', #290, 0.1499999999999963307 ) ;
#62 = CARTESIAN_POINT ( 'NONE',  ( 0.0000000000000000000, 0.0000000000000000000, 0.0000000000000000000 ) ) ;
#63 = CARTESIAN_POINT ( 'NONE',  ( 6.094471906479900948E-14, -0.1500000000000036582, 29.89999999999999858 ) ) ;
#64 = AXIS2_PLACEMENT_3D ( 'NONE', #62, #2, #181 ) ;
#65 = ORIENTED_EDGE ( 'NONE', *, *, #15, .T. ) ;
#66 = APPROVAL_DATE_TIME ( #206, #332 ) ;
#67 = DIRECTION ( 'NONE',  ( -3.491481338843133355E-15, 1.224646799147353207E-16, -1.000000000000000000 ) ) ;
#68 = VERTEX_POINT ( 'NONE', #220 ) ;
#69 = ORIENTED_EDGE ( 'NONE', *, *, #109, .F. ) ;
#70 = PERSON_AND_ORGANIZATION ( #190, #56 ) ;
#71 = DIRECTION ( 'NONE',  ( 0.0000000000000000000, 1.000000000000000000, 0.0000000000000000000 ) ) ;
#72 = AXIS2_PLACEMENT_3D ( 'NONE', #335, #137, #170 ) ;
#73 = CC_DESIGN_SECURITY_CLASSIFICATION ( #19, ( #154 ) ) ;
#74 = PERSON_AND_ORGANIZATION_ROLE ( 'design_supplier' ) ;
#75 = DIRECTION ( 'NONE',  ( -2.468850131082257455E-15, 0.7071067811865497932, -0.7071067811865453523 ) ) ;
#76 = PRODUCT_DEFINITION_SHAPE ( 'NONE', 'NONE',  #144 ) ;
#77 = CYLINDRICAL_SURFACE ( 'NONE', #211, 0.1499999999999966638 ) ;
#78 = CARTESIAN_POINT ( 'NONE',  ( 0.0000000000000000000, 0.0000000000000000000, 0.0000000000000000000 ) ) ;
#79 = CARTESIAN_POINT ( 'NONE',  ( 6.413747168845293839E-32, 0.1499999999999966638, 1.836970198720989073E-17 ) ) ;
#80 = EDGE_CURVE ( 'NONE', #54, #14, #274, .T. ) ;
#81 = APPROVAL_ROLE ( '' ) ;
#82 = DIRECTION ( 'NONE',  ( 4.275831445896957731E-31, 1.000000000000000000, 1.224646799147353207E-16 ) ) ;
#83 = EDGE_CURVE ( 'NONE', #237, #127, #244, .T. ) ;
#84 = DIRECTION ( 'NONE',  ( -3.491481338843133355E-15, 1.224646799147353207E-16, -1.000000000000000000 ) ) ;
#85 = CALENDAR_DATE ( 2021, 3, 9 ) ;
#86 = DIRECTION ( 'NONE',  ( 1.798245827342160317E-15, -0.8571673007021098911, 0.5150380749100582634 ) ) ;
#87 = AXIS2_PLACEMENT_3D ( 'NONE', #216, #164, #188 ) ;
#88 = VERTEX_POINT ( 'NONE', #187 ) ;
#89 = CC_DESIGN_PERSON_AND_ORGANIZATION_ASSIGNMENT ( #253, #106, ( #219 ) ) ;
#90 = DIRECTION ( 'NONE',  ( 0.0000000000000000000, 1.000000000000000000, 0.0000000000000000000 ) ) ;
#91 = ORIENTED_EDGE ( 'NONE', *, *, #80, .T. ) ;
#92 = APPLICATION_PROTOCOL_DEFINITION ( 'international standard', 'config_control_design', 1994, #3 ) ;
#93 = ORIENTED_EDGE ( 'NONE', *, *, #142, .T. ) ;
#94 = VERTEX_POINT ( 'NONE', #44 ) ;
#95 = PLANE ( 'NONE',  #116 ) ;
#96 = EDGE_LOOP ( 'NONE', ( #212, #33, #312, #30 ) ) ;
#97 = CIRCLE ( 'NONE', #272, 0.1499999999999969413 ) ;
#98 = CIRCLE ( 'NONE', #324, 0.05000000000000000971 ) ;
#99 = DIRECTION ( 'NONE',  ( 0.0000000000000000000, 1.000000000000000000, 0.0000000000000000000 ) ) ;
#100 = ORIENTED_EDGE ( 'NONE', *, *, #255, .T. ) ;
#101 = ORIENTED_EDGE ( 'NONE', *, *, #1, .F. ) ;
#102 = CARTESIAN_POINT ( 'NONE',  ( 1.745740669421566678E-14, -6.123233995736766282E-16, 5.000000000000000000 ) ) ;
#103 = COORDINATED_UNIVERSAL_TIME_OFFSET ( 1, 0, .AHEAD. ) ;
#104 = DIRECTION ( 'NONE',  ( -3.491481338843133355E-15, 1.224646799147353207E-16, -1.000000000000000000 ) ) ;
#105 = APPROVAL_PERSON_ORGANIZATION ( #23, #306, #172 ) ;
#106 = PERSON_AND_ORGANIZATION_ROLE ( 'design_owner' ) ;
#107 = DIRECTION ( 'NONE',  ( 0.0000000000000000000, 1.000000000000000000, 0.0000000000000000000 ) ) ;
#108 = VECTOR ( 'NONE', #155, 999.9999999999998863 ) ;
#109 = EDGE_CURVE ( 'NONE', #237, #6, #12, .T. ) ;
#110 = CONICAL_SURFACE ( 'NONE', #246, 0.1499999999999963307, 1.029744258676649649 ) ;
#111 = DIRECTION ( 'NONE',  ( -3.491481338843133355E-15, 1.224646799147353207E-16, -1.000000000000000000 ) ) ;
#112 = APPROVAL_STATUS ( 'not_yet_approved' ) ;
#113 = CARTESIAN_POINT ( 'NONE',  ( 1.043952920314096810E-13, 0.1499999999999963307, 29.89999999999999858 ) ) ;
#114 = PERSON_AND_ORGANIZATION ( #190, #56 ) ;
#115 = DATE_AND_TIME ( #85, #301 ) ;
#116 = AXIS2_PLACEMENT_3D ( 'NONE', #289, #35, #318 ) ;
#117 = EDGE_LOOP ( 'NONE', ( #69, #34, #307, #309 ) ) ;
#118 = PERSON_AND_ORGANIZATION ( #190, #56 ) ;
#119 = ORIENTED_EDGE ( 'NONE', *, *, #48, .F. ) ;
#120 =( NAMED_UNIT ( * ) PLANE_ANGLE_UNIT ( ) SI_UNIT ( $, .RADIAN. ) );
#121 = PERSON_AND_ORGANIZATION_ROLE ( 'creator' ) ;
#122 = ORIENTED_EDGE ( 'NONE', *, *, #21, .T. ) ;
#123 = APPROVAL_DATE_TIME ( #115, #306 ) ;
#124 = DIRECTION ( 'NONE',  ( 3.491481338843133355E-15, -1.224646799147353207E-16, 1.000000000000000000 ) ) ;
#125 = AXIS2_PLACEMENT_3D ( 'NONE', #40, #124, #321 ) ;
#126 = PERSON_AND_ORGANIZATION_ROLE ( 'creator' ) ;
#127 = VERTEX_POINT ( 'NONE', #113 ) ;
#128 = LINE ( 'NONE', #241, #169 ) ;
#129 = EDGE_CURVE ( 'NONE', #94, #88, #97, .T. ) ;
#130 = FACE_OUTER_BOUND ( 'NONE', #298, .T. ) ;
#131 = DIRECTION ( 'NONE',  ( -3.491481338843133355E-15, 1.224646799147353207E-16, -1.000000000000000000 ) ) ;
#132 = CARTESIAN_POINT ( 'NONE',  ( 1.745740669421566678E-14, 1.124819836996361218E-33, 5.000000000000000000 ) ) ;
#133 = FACE_OUTER_BOUND ( 'NONE', #117, .T. ) ;
#134 = EDGE_CURVE ( 'NONE', #88, #94, #136, .T. ) ;
#135 = CYLINDRICAL_SURFACE ( 'NONE', #160, 0.1499999999999984679 ) ;
#136 = CIRCLE ( 'NONE', #139, 0.1499999999999969413 ) ;
#137 = DIRECTION ( 'NONE',  ( -3.491481338843133355E-15, 1.224646799147353207E-16, -1.000000000000000000 ) ) ;
#138 = SECURITY_CLASSIFICATION_LEVEL ( 'unclassified' ) ;
#139 = AXIS2_PLACEMENT_3D ( 'NONE', #317, #104, #276 ) ;
#140 =( GEOMETRIC_REPRESENTATION_CONTEXT ( 3 ) GLOBAL_UNCERTAINTY_ASSIGNED_CONTEXT ( ( #49 ) ) GLOBAL_UNIT_ASSIGNED_CONTEXT ( ( #197, #120, #311 ) ) REPRESENTATION_CONTEXT ( 'NONE', 'WORKASPACE' ) );
#141 = CARTESIAN_POINT ( 'NONE',  ( 1.047444401652940007E-13, -3.673940397442059178E-15, 30.00000000000000000 ) ) ;
#142 = EDGE_CURVE ( 'NONE', #6, #191, #249, .T. ) ;
#143 = CALENDAR_DATE ( 2021, 3, 9 ) ;
#144 = PRODUCT_DEFINITION ( 'UNKNOWN', '', #154, #198 ) ;
#145 = DIRECTION ( 'NONE',  ( 1.000000000000000000, 0.0000000000000000000, 0.0000000000000000000 ) ) ;
#146 = AXIS2_PLACEMENT_3D ( 'NONE', #221, #111, #90 ) ;
#147 = MECHANICAL_CONTEXT ( 'NONE', #3, 'mechanical' ) ;
#148 = EDGE_CURVE ( 'NONE', #68, #14, #313, .T. ) ;
#149 = VERTEX_POINT ( 'NONE', #234 ) ;
#150 = CARTESIAN_POINT ( 'NONE',  ( 1.047444401652940007E-13, 0.04999999999999633904, 30.00000000000000000 ) ) ;
#151 = CYLINDRICAL_SURFACE ( 'NONE', #203, 0.1499999999999966638 ) ;
#152 = DIRECTION ( 'NONE',  ( 0.0000000000000000000, 1.000000000000000000, 0.0000000000000000000 ) ) ;
#153 = AXIS2_PLACEMENT_3D ( 'NONE', #223, #7, #279 ) ;
#154 = PRODUCT_DEFINITION_FORMATION_WITH_SPECIFIED_SOURCE ( 'ANY', '', #219, .NOT_KNOWN. ) ;
#155 = DIRECTION ( 'NONE',  ( 1.903218546456022717E-15, 0.8571673007021097801, 0.5150380749100585964 ) ) ;
#156 = EDGE_LOOP ( 'NONE', ( #201, #100, #8, #182 ) ) ;
#157 = DIRECTION ( 'NONE',  ( -3.491481338843133355E-15, 1.224646799147353207E-16, -1.000000000000000000 ) ) ;
#158 = ADVANCED_FACE ( 'NONE', ( #207 ), #151, .T. ) ;
#159 = DIRECTION ( 'NONE',  ( 3.209883240645471620E-31, 1.000000000000000000, 9.035018104046091329E-17 ) ) ;
#160 = AXIS2_PLACEMENT_3D ( 'NONE', #217, #186, #328 ) ;
#161 = VECTOR ( 'NONE', #18, 1000.000000000000000 ) ;
#162 = DIRECTION ( 'NONE',  ( 0.0000000000000000000, 0.0000000000000000000, 1.000000000000000000 ) ) ;
#163 = DIRECTION ( 'NONE',  ( -3.491481338843133355E-15, 1.224646799147353207E-16, -1.000000000000000000 ) ) ;
#164 = DIRECTION ( 'NONE',  ( -3.491481338843133355E-15, 1.224646799147353207E-16, -1.000000000000000000 ) ) ;
#165 = DATE_AND_TIME ( #143, #27 ) ;
#166 = PRODUCT_RELATED_PRODUCT_CATEGORY ( 'detail', '', ( #219 ) ) ;
#167 = DIRECTION ( 'NONE',  ( 4.275831445896957731E-31, 1.000000000000000000, 1.224646799147353207E-16 ) ) ;
#168 = CLOSED_SHELL ( 'NONE', ( #36, #189, #320, #158, #224 ) ) ;
#169 = VECTOR ( 'NONE', #50, 1000.000000000000000 ) ;
#170 = DIRECTION ( 'NONE',  ( 0.0000000000000000000, 1.000000000000000000, 0.0000000000000000000 ) ) ;
#171 = CARTESIAN_POINT ( 'NONE',  ( 3.146840457870647961E-16, -1.103763050738683675E-17, 0.09012909285413284177 ) ) ;
#172 = APPROVAL_ROLE ( '' ) ;
#173 = CARTESIAN_POINT ( 'NONE',  ( 6.094471906479966581E-14, -0.1499999999999975797, 5.000000000000000000 ) ) ;
#174 = AXIS2_PLACEMENT_3D ( 'NONE', #102, #38, #152 ) ;
#175 = PLANE ( 'NONE',  #125 ) ;
#176 = EDGE_CURVE ( 'NONE', #149, #237, #277, .T. ) ;
#177 = MANIFOLD_SOLID_BREP ( 'Corps-Déplacer/Copier1[2]', #168 ) ;
#178 = ORIENTED_EDGE ( 'NONE', *, *, #134, .F. ) ;
#179 = CLOSED_SHELL ( 'NONE', ( #283, #263, #215, #26, #247, #288 ) ) ;
#180 = AXIS2_PLACEMENT_3D ( 'NONE', #132, #264, #225 ) ;
#181 = DIRECTION ( 'NONE',  ( 4.275831445896958607E-31, 1.000000000000000000, 1.224646799147353207E-16 ) ) ;
#182 = ORIENTED_EDGE ( 'NONE', *, *, #245, .F. ) ;
#183 = LINE ( 'NONE', #268, #108 ) ;
#184 = CC_DESIGN_APPROVAL ( #332, ( #154 ) ) ;
#185 = CARTESIAN_POINT ( 'NONE',  ( 3.146840457870647961E-16, -1.103763050738683675E-17, 0.09012909285413284177 ) ) ;
#186 = DIRECTION ( 'NONE',  ( -3.491481338843133355E-15, 1.224646799147353207E-16, -1.000000000000000000 ) ) ;
#187 = CARTESIAN_POINT ( 'NONE',  ( 8.904415071988542172E-15, -0.1499999999999975797, 5.000000000000000000 ) ) ;
#188 = DIRECTION ( 'NONE',  ( 0.0000000000000000000, 1.000000000000000000, 0.0000000000000000000 ) ) ;
#189 = ADVANCED_FACE ( 'NONE', ( #53 ), #110, .T. ) ;
#190 = PERSON ( 'UNSPECIFIED', 'UNSPECIFIED', 'UNSPECIFIED', ('UNSPECIFIED'), ('UNSPECIFIED'), ('UNSPECIFIED') ) ;
#191 = VERTEX_POINT ( 'NONE', #254 ) ;
#192 = CARTESIAN_POINT ( 'NONE',  ( 1.043952920314096810E-13, -3.661693929450586610E-15, 29.89999999999999858 ) ) ;
#193 = LOCAL_TIME ( 9, 21, 29.00000000000000000, #51 ) ;
#194 = CARTESIAN_POINT ( 'NONE',  ( 0.0000000000000000000, 0.0000000000000000000, 0.0000000000000000000 ) ) ;
#195 = DIRECTION ( 'NONE',  ( -2.382254525458708792E-15, -0.7071067811865495711, -0.7071067811865455743 ) ) ;
#196 = DIRECTION ( 'NONE',  ( -3.491481338843133355E-15, 1.224646799147353207E-16, -1.000000000000000000 ) ) ;
#197 =( LENGTH_UNIT ( ) NAMED_UNIT ( * ) SI_UNIT ( .MILLI., .METRE. ) );
#198 = DESIGN_CONTEXT ( 'detailed design', #282, 'design' ) ;
#199 = PERSON_AND_ORGANIZATION ( #190, #56 ) ;
#200 = CARTESIAN_POINT ( 'NONE',  ( 0.0000000000000000000, 0.0000000000000000000, 0.0000000000000000000 ) ) ;
#201 = ORIENTED_EDGE ( 'NONE', *, *, #129, .T. ) ;
#202 = EDGE_CURVE ( 'NONE', #127, #191, #267, .T. ) ;
#203 = AXIS2_PLACEMENT_3D ( 'NONE', #200, #257, #82 ) ;
#204 = CIRCLE ( 'NONE', #174, 0.1499999999999969413 ) ;
#205 = ORIENTED_EDGE ( 'NONE', *, *, #21, .F. ) ;
#206 = DATE_AND_TIME ( #308, #238 ) ;
#207 = FACE_OUTER_BOUND ( 'NONE', #230, .T. ) ;
#208 = EDGE_LOOP ( 'NONE', ( #209, #60, #46 ) ) ;
#209 = ORIENTED_EDGE ( 'NONE', *, *, #80, .F. ) ;
#210 = CARTESIAN_POINT ( 'NONE',  ( 6.413747168845372662E-32, 0.1499999999999984679, 1.836970198721010952E-17 ) ) ;
#211 = AXIS2_PLACEMENT_3D ( 'NONE', #78, #43, #167 ) ;
#212 = ORIENTED_EDGE ( 'NONE', *, *, #176, .F. ) ;
#213 = CC_DESIGN_APPROVAL ( #306, ( #19 ) ) ;
#214 = SHAPE_DEFINITION_REPRESENTATION ( #76, #41 ) ;
#215 = ADVANCED_FACE ( 'NONE', ( #32 ), #175, .F. ) ;
#216 = CARTESIAN_POINT ( 'NONE',  ( 1.047444401652940007E-13, -3.673940397442059178E-15, 30.00000000000000000 ) ) ;
#217 = CARTESIAN_POINT ( 'NONE',  ( 0.0000000000000000000, 0.0000000000000000000, 0.0000000000000000000 ) ) ;
#218 = APPROVAL ( #112, 'UNSPECIFIED' ) ;
#219 = PRODUCT ( '24828', '24828', '', ( #147 ) ) ;
#220 = CARTESIAN_POINT ( 'NONE',  ( 3.330537477742747331E-16, 0.1499999999999963307, 0.09012909285413285565 ) ) ;
#221 = CARTESIAN_POINT ( 'NONE',  ( 1.745740669421566678E-14, -6.123233995736766282E-16, 5.000000000000000000 ) ) ;
#222 = DIRECTION ( 'NONE',  ( 0.0000000000000000000, 1.000000000000000000, 0.0000000000000000000 ) ) ;
#223 = CARTESIAN_POINT ( 'NONE',  ( 3.146840457870647961E-16, -1.103763050738683675E-17, 0.09012909285413284177 ) ) ;
#224 = ADVANCED_FACE ( 'NONE', ( #130 ), #316, .T. ) ;
#225 = DIRECTION ( 'NONE',  ( -4.275831445896958607E-31, -1.000000000000000000, -1.224646799147353207E-16 ) ) ;
#226 = CC_DESIGN_PERSON_AND_ORGANIZATION_ASSIGNMENT ( #286, #74, ( #154 ) ) ;
#227 = APPROVAL_STATUS ( 'not_yet_approved' ) ;
#228 = COORDINATED_UNIVERSAL_TIME_OFFSET ( 1, 0, .AHEAD. ) ;
#229 = DIRECTION ( 'NONE',  ( -3.491481338843133355E-15, 1.224646799147353207E-16, -1.000000000000000000 ) ) ;
#230 = EDGE_LOOP ( 'NONE', ( #284, #329, #31, #205 ) ) ;
#231 = EDGE_LOOP ( 'NONE', ( #287, #93 ) ) ;
#232 = CONICAL_SURFACE ( 'NONE', #305, 0.1499999999999963307, 1.029744258676649649 ) ;
#233 = ORIENTED_EDGE ( 'NONE', *, *, #303, .F. ) ;
#234 = CARTESIAN_POINT ( 'NONE',  ( 1.045821125663433055E-13, -0.05000000000000368039, 30.00000000000000000 ) ) ;
#235 = AXIS2_PLACEMENT_3D ( 'NONE', #141, #196, #4 ) ;
#236 = CC_DESIGN_DATE_AND_TIME_ASSIGNMENT ( #165, #271, ( #19 ) ) ;
#237 = VERTEX_POINT ( 'NONE', #63 ) ;
#238 = LOCAL_TIME ( 9, 21, 29.00000000000000000, #228 ) ;
#239 = CYLINDRICAL_SURFACE ( 'NONE', #64, 0.1499999999999984679 ) ;
#240 = APPROVAL_STATUS ( 'not_yet_approved' ) ;
#241 = CARTESIAN_POINT ( 'NONE',  ( 1.836970198720982602E-17, -0.1499999999999966638, -1.836970198720994928E-17 ) ) ;
#242 = VECTOR ( 'NONE', #229, 1000.000000000000000 ) ;
#243 = ORIENTED_EDGE ( 'NONE', *, *, #109, .T. ) ;
#244 = CIRCLE ( 'NONE', #72, 0.1499999999999999944 ) ;
#245 = EDGE_CURVE ( 'NONE', #94, #68, #330, .T. ) ;
#246 = AXIS2_PLACEMENT_3D ( 'NONE', #171, #24, #333 ) ;
#247 = ADVANCED_FACE ( 'NONE', ( #326 ), #300, .T. ) ;
#248 = EDGE_LOOP ( 'NONE', ( #101, #91, #122 ) ) ;
#249 = CIRCLE ( 'NONE', #146, 0.1499999999999969413 ) ;
#250 = APPROVAL_PERSON_ORGANIZATION ( #199, #218, #81 ) ;
#251 = CARTESIAN_POINT ( 'NONE',  ( 3.146840457870647468E-16, -0.1499999999999963307, 0.09012909285413282789 ) ) ;
#252 = FACE_OUTER_BOUND ( 'NONE', #295, .T. ) ;
#253 = PERSON_AND_ORGANIZATION ( #190, #56 ) ;
#254 = CARTESIAN_POINT ( 'NONE',  ( 1.745740669421566678E-14, 0.1499999999999963307, 5.000000000000000000 ) ) ;
#255 = EDGE_CURVE ( 'NONE', #88, #14, #128, .T. ) ;
#256 = VECTOR ( 'NONE', #67, 1000.000000000000000 ) ;
#257 = DIRECTION ( 'NONE',  ( -3.491481338843133355E-15, 1.224646799147353207E-16, -1.000000000000000000 ) ) ;
#258 = FACE_OUTER_BOUND ( 'NONE', #10, .T. ) ;
#259 = AXIS2_PLACEMENT_3D ( 'NONE', #25, #163, #71 ) ;
#260 = CC_DESIGN_APPROVAL ( #218, ( #144 ) ) ;
#261 = APPROVAL_DATE_TIME ( #22, #218 ) ;
#262 = ORIENTED_EDGE ( 'NONE', *, *, #176, .T. ) ;
#263 = ADVANCED_FACE ( 'NONE', ( #20 ), #239, .T. ) ;
#264 = DIRECTION ( 'NONE',  ( 3.491481338843133355E-15, -1.224646799147353207E-16, 1.000000000000000000 ) ) ;
#265 = CALENDAR_DATE ( 2021, 3, 9 ) ;
#266 = EDGE_CURVE ( 'NONE', #149, #285, #98, .T. ) ;
#267 = LINE ( 'NONE', #210, #256 ) ;
#268 = CARTESIAN_POINT ( 'NONE',  ( 3.330537477742747331E-16, 0.1499999999999963307, 0.09012909285413285565 ) ) ;
#269 = FACE_OUTER_BOUND ( 'NONE', #156, .T. ) ;
#270 = ORIENTED_EDGE ( 'NONE', *, *, #48, .T. ) ;
#271 = DATE_TIME_ROLE ( 'classification_date' ) ;
#272 = AXIS2_PLACEMENT_3D ( 'NONE', #42, #157, #99 ) ;
#273 = PERSON_AND_ORGANIZATION_ROLE ( 'classification_officer' ) ;
#274 = LINE ( 'NONE', #47, #281 ) ;
#275 = CALENDAR_DATE ( 2021, 3, 9 ) ;
#276 = DIRECTION ( 'NONE',  ( 0.0000000000000000000, 1.000000000000000000, 0.0000000000000000000 ) ) ;
#277 = LINE ( 'NONE', #337, #323 ) ;
#278 = MANIFOLD_SOLID_BREP ( 'Corps-Déplacer/Copier1[1]', #179 ) ;
#279 = DIRECTION ( 'NONE',  ( 3.209883240645471620E-31, 1.000000000000000000, 9.035018104046091329E-17 ) ) ;
#280 = COORDINATED_UNIVERSAL_TIME_OFFSET ( 1, 0, .AHEAD. ) ;
#281 = VECTOR ( 'NONE', #86, 1000.000000000000000 ) ;
#282 = APPLICATION_CONTEXT ( 'configuration controlled 3d designs of mechanical parts and assemblies' ) ;
#283 = ADVANCED_FACE ( 'NONE', ( #258 ), #334, .T. ) ;
#284 = ORIENTED_EDGE ( 'NONE', *, *, #255, .F. ) ;
#285 = VERTEX_POINT ( 'NONE', #150 ) ;
#286 = PERSON_AND_ORGANIZATION ( #190, #56 ) ;
#287 = ORIENTED_EDGE ( 'NONE', *, *, #303, .T. ) ;
#288 = ADVANCED_FACE ( 'NONE', ( #252 ), #95, .F. ) ;
#289 = CARTESIAN_POINT ( 'NONE',  ( 1.047444401652940007E-13, 3.749399456654094072E-34, 30.00000000000000000 ) ) ;
#290 = AXIS2_PLACEMENT_3D ( 'NONE', #185, #131, #159 ) ;
#291 = LOCAL_TIME ( 9, 21, 29.00000000000000000, #103 ) ;
#292 = CC_DESIGN_DATE_AND_TIME_ASSIGNMENT ( #59, #5, ( #144 ) ) ;
#293 = CARTESIAN_POINT ( 'NONE',  ( 1.836970198721004789E-17, -0.1499999999999984679, -1.836970198721017115E-17 ) ) ;
#294 = DIRECTION ( 'NONE',  ( -3.209883240645471620E-31, -1.000000000000000000, -9.035018104046091329E-17 ) ) ;
#295 = EDGE_LOOP ( 'NONE', ( #11, #13 ) ) ;
#296 = LINE ( 'NONE', #322, #45 ) ;
#297 = CARTESIAN_POINT ( 'NONE',  ( 0.0000000000000000000, 0.0000000000000000000, 0.0000000000000000000 ) ) ;
#298 = EDGE_LOOP ( 'NONE', ( #325, #178 ) ) ;
#299 = CIRCLE ( 'NONE', #37, 0.1499999999999999944 ) ;
#300 = CONICAL_SURFACE ( 'NONE', #87, 0.05000000000000000971, 0.7853981633974512766 ) ;
#301 = LOCAL_TIME ( 9, 21, 29.00000000000000000, #280 ) ;
#302 = CC_DESIGN_PERSON_AND_ORGANIZATION_ASSIGNMENT ( #314, #126, ( #144 ) ) ;
#303 = EDGE_CURVE ( 'NONE', #191, #6, #204, .T. ) ;
#304 = CC_DESIGN_PERSON_AND_ORGANIZATION_ASSIGNMENT ( #118, #121, ( #154 ) ) ;
#305 = AXIS2_PLACEMENT_3D ( 'NONE', #319, #58, #294 ) ;
#306 = APPROVAL ( #240, 'UNSPECIFIED' ) ;
#307 = ORIENTED_EDGE ( 'NONE', *, *, #202, .T. ) ;
#308 = CALENDAR_DATE ( 2021, 3, 9 ) ;
#309 = ORIENTED_EDGE ( 'NONE', *, *, #142, .F. ) ;
#310 = EDGE_LOOP ( 'NONE', ( #270, #243, #233, #327 ) ) ;
#311 =( NAMED_UNIT ( * ) SI_UNIT ( $, .STERADIAN. ) SOLID_ANGLE_UNIT ( ) );
#312 = ORIENTED_EDGE ( 'NONE', *, *, #17, .T. ) ;
#313 = CIRCLE ( 'NONE', #153, 0.1499999999999963307 ) ;
#314 = PERSON_AND_ORGANIZATION ( #190, #56 ) ;
#315 = AXIS2_PLACEMENT_3D ( 'NONE', #297, #162, #145 ) ;
#316 = PLANE ( 'NONE',  #180 ) ;
#317 = CARTESIAN_POINT ( 'NONE',  ( 1.745740669421566678E-14, -6.123233995736766282E-16, 5.000000000000000000 ) ) ;
#318 = DIRECTION ( 'NONE',  ( 4.275831445896958607E-31, 1.000000000000000000, 1.224646799147353207E-16 ) ) ;
#319 = CARTESIAN_POINT ( 'NONE',  ( 3.146840457870647961E-16, -1.103763050738683675E-17, 0.09012909285413284177 ) ) ;
#320 = ADVANCED_FACE ( 'NONE', ( #16 ), #232, .T. ) ;
#321 = DIRECTION ( 'NONE',  ( -4.275831445896958607E-31, -1.000000000000000000, -1.224646799147353207E-16 ) ) ;
#322 = CARTESIAN_POINT ( 'NONE',  ( 1.047444401652940007E-13, 0.04999999999999633904, 30.00000000000000000 ) ) ;
#323 = VECTOR ( 'NONE', #195, 1000.000000000000114 ) ;
#324 = AXIS2_PLACEMENT_3D ( 'NONE', #57, #84, #222 ) ;
#325 = ORIENTED_EDGE ( 'NONE', *, *, #129, .F. ) ;
#326 = FACE_OUTER_BOUND ( 'NONE', #96, .T. ) ;
#327 = ORIENTED_EDGE ( 'NONE', *, *, #202, .F. ) ;
#328 = DIRECTION ( 'NONE',  ( 4.275831445896958607E-31, 1.000000000000000000, 1.224646799147353207E-16 ) ) ;
#329 = ORIENTED_EDGE ( 'NONE', *, *, #134, .T. ) ;
#330 = LINE ( 'NONE', #79, #161 ) ;
#331 = DIRECTION ( 'NONE',  ( -3.491481338843133355E-15, 1.224646799147353207E-16, -1.000000000000000000 ) ) ;
#332 = APPROVAL ( #227, 'UNSPECIFIED' ) ;
#333 = DIRECTION ( 'NONE',  ( -3.209883240645471620E-31, -1.000000000000000000, -9.035018104046091329E-17 ) ) ;
#334 = CONICAL_SURFACE ( 'NONE', #235, 0.05000000000000000971, 0.7853981633974512766 ) ;
#335 = CARTESIAN_POINT ( 'NONE',  ( 1.043952920314096810E-13, -3.661693929450586610E-15, 29.89999999999999858 ) ) ;
#336 = APPLICATION_PROTOCOL_DEFINITION ( 'international standard', 'config_control_design', 1994, #282 ) ;
#337 = CARTESIAN_POINT ( 'NONE',  ( 1.047505633992897362E-13, -0.05000000000000368039, 30.00000000000000000 ) ) ;
ENDSEC;
END-ISO-10303-21;
