ISO-10303-21;
HEADER;
FILE_DESCRIPTION (( 'STEP AP203' ),
    '1' );
FILE_NAME ('247.step',
    '2021-09-03T07:21:28',
    ( '' ),
    ( '' ),
    'SwSTEP 2.0',
    'SolidWorks 2019',
    '' );
FILE_SCHEMA (( 'CONFIG_CONTROL_DESIGN' ));
ENDSEC;

DATA;
#1 = ORIENTED_EDGE ( 'NONE', *, *, #215, .T. ) ;
#2 = APPROVAL ( #178, 'UNSPECIFIED' ) ;
#3 = ORIENTED_EDGE ( 'NONE', *, *, #274, .F. ) ;
#4 = ORIENTED_EDGE ( 'NONE', *, *, #294, .F. ) ;
#5 = AXIS2_PLACEMENT_3D ( 'NONE', #149, #168, #307 ) ;
#6 = CARTESIAN_POINT ( 'NONE',  ( 0.0000000000000000000, 0.0000000000000000000, 0.0000000000000000000 ) ) ;
#7 = PERSON_AND_ORGANIZATION_ROLE ( 'design_owner' ) ;
#8 = DATE_AND_TIME ( #155, #116 ) ;
#9 = DIRECTION ( 'NONE',  ( 3.501690807976839435E-31, 1.000000000000000000, 9.856383386231990715E-17 ) ) ;
#10 = SHAPE_DEFINITION_REPRESENTATION ( #232, #233 ) ;
#11 = CARTESIAN_POINT ( 'NONE',  ( 0.0000000000000000000, 0.0000000000000000000, 0.0000000000000000000 ) ) ;
#12 = CARTESIAN_POINT ( 'NONE',  ( 5.769207506096251778E-16, -2.023565593020942412E-17, 0.1652366702325786807 ) ) ;
#13 = CIRCLE ( 'NONE', #236, 0.2749999999999963030 ) ;
#14 = DIRECTION ( 'NONE',  ( 3.501690807976839435E-31, 1.000000000000000000, 9.856383386231990715E-17 ) ) ;
#15 = EDGE_CURVE ( 'NONE', #327, #71, #255, .T. ) ;
#16 = CARTESIAN_POINT ( 'NONE',  ( 0.0000000000000000000, 0.0000000000000000000, 0.0000000000000000000 ) ) ;
#17 = EDGE_CURVE ( 'NONE', #43, #191, #32, .T. ) ;
#18 = EDGE_LOOP ( 'NONE', ( #62, #222, #263, #22 ) ) ;
#19 = VERTEX_POINT ( 'NONE', #52 ) ;
#20 = DIRECTION ( 'NONE',  ( -2.468850131082257455E-15, 0.7071067811865497932, -0.7071067811865453523 ) ) ;
#21 = AXIS2_PLACEMENT_3D ( 'NONE', #322, #308, #28 ) ;
#22 = ORIENTED_EDGE ( 'NONE', *, *, #94, .F. ) ;
#23 = EDGE_CURVE ( 'NONE', #19, #31, #167, .T. ) ;
#24 = PERSON_AND_ORGANIZATION_ROLE ( 'creator' ) ;
#25 = CARTESIAN_POINT ( 'NONE',  ( 0.0000000000000000000, 0.0000000000000000000, 0.0000000000000000000 ) ) ;
#26 = CARTESIAN_POINT ( 'NONE',  ( 6.105985375861770082E-16, 0.2749999999999963030, 0.1652366702325787085 ) ) ;
#27 = VECTOR ( 'NONE', #45, 1000.000000000000000 ) ;
#28 = DIRECTION ( 'NONE',  ( 0.0000000000000000000, 1.000000000000000000, 0.0000000000000000000 ) ) ;
#29 = FACE_OUTER_BOUND ( 'NONE', #319, .T. ) ;
#30 = FACE_OUTER_BOUND ( 'NONE', #46, .T. ) ;
#31 = VERTEX_POINT ( 'NONE', #214 ) ;
#32 = CIRCLE ( 'NONE', #181, 0.1750000000000000167 ) ;
#33 = CC_DESIGN_PERSON_AND_ORGANIZATION_ASSIGNMENT ( #153, #251, ( #207 ) ) ;
#34 = PERSON_AND_ORGANIZATION ( #185, #296 ) ;
#35 = PLANE ( 'NONE',  #197 ) ;
#36 = APPROVAL_ROLE ( '' ) ;
#37 = DIRECTION ( 'NONE',  ( 0.0000000000000000000, 1.000000000000000000, 0.0000000000000000000 ) ) ;
#38 = APPROVAL_DATE_TIME ( #249, #147 ) ;
#39 = EDGE_CURVE ( 'NONE', #71, #327, #220, .T. ) ;
#40 = AXIS2_PLACEMENT_3D ( 'NONE', #11, #59, #97 ) ;
#41 = PRODUCT ( '247', '247', '', ( #66 ) ) ;
#42 = VECTOR ( 'NONE', #273, 1000.000000000000000 ) ;
#43 = VERTEX_POINT ( 'NONE', #161 ) ;
#44 = DIRECTION ( 'NONE',  ( -2.382254525458708792E-15, -0.7071067811865495711, -0.7071067811865455743 ) ) ;
#45 = DIRECTION ( 'NONE',  ( 1.798245827342160317E-15, -0.8571673007021098911, 0.5150380749100582634 ) ) ;
#46 = EDGE_LOOP ( 'NONE', ( #329, #234, #3, #270 ) ) ;
#47 = PRODUCT_DEFINITION ( 'UNKNOWN', '', #207, #74 ) ;
#48 = ORIENTED_EDGE ( 'NONE', *, *, #199, .F. ) ;
#49 = CALENDAR_DATE ( 2021, 3, 9 ) ;
#50 = CARTESIAN_POINT ( 'NONE',  ( 5.769207506096250792E-16, -0.2749999999999963030, 0.1652366702325786529 ) ) ;
#51 = CIRCLE ( 'NONE', #87, 0.2750000000000000222 ) ;
#52 = CARTESIAN_POINT ( 'NONE',  ( 1.043952920314096810E-13, 0.2749999999999963030, 29.89999999999999858 ) ) ;
#53 = DIRECTION ( 'NONE',  ( 0.0000000000000000000, 1.000000000000000000, 0.0000000000000000000 ) ) ;
#54 = MANIFOLD_SOLID_BREP ( 'Corps-Déplacer/Copier1[2]', #265 ) ;
#55 = LINE ( 'NONE', #172, #218 ) ;
#56 = VERTEX_POINT ( 'NONE', #259 ) ;
#57 = CALENDAR_DATE ( 2021, 3, 9 ) ;
#58 = EDGE_LOOP ( 'NONE', ( #311, #103, #216, #165 ) ) ;
#59 = DIRECTION ( 'NONE',  ( 0.0000000000000000000, 0.0000000000000000000, 1.000000000000000000 ) ) ;
#60 = DIRECTION ( 'NONE',  ( -3.491481338843133355E-15, 1.224646799147353207E-16, -1.000000000000000000 ) ) ;
#61 = AXIS2_PLACEMENT_3D ( 'NONE', #158, #131, #53 ) ;
#62 = ORIENTED_EDGE ( 'NONE', *, *, #330, .T. ) ;
#63 = ORIENTED_EDGE ( 'NONE', *, *, #330, .F. ) ;
#64 = DIRECTION ( 'NONE',  ( 4.275831445896958607E-31, 1.000000000000000000, 1.224646799147353207E-16 ) ) ;
#65 = ORIENTED_EDGE ( 'NONE', *, *, #309, .T. ) ;
#66 = MECHANICAL_CONTEXT ( 'NONE', #287, 'mechanical' ) ;
#67 = FACE_OUTER_BOUND ( 'NONE', #58, .T. ) ;
#68 = ORIENTED_EDGE ( 'NONE', *, *, #39, .T. ) ;
#69 = DIRECTION ( 'NONE',  ( -3.491481338843133355E-15, 1.224646799147353207E-16, -1.000000000000000000 ) ) ;
#70 = CONICAL_SURFACE ( 'NONE', #120, 0.2749999999999963030, 1.029744258676649649 ) ;
#71 = VERTEX_POINT ( 'NONE', #76 ) ;
#72 = CARTESIAN_POINT ( 'NONE',  ( 1.175853647621649429E-31, 0.2749999999999966915, 3.367778697655181199E-17 ) ) ;
#73 = CYLINDRICAL_SURFACE ( 'NONE', #92, 0.2749999999999985789 ) ;
#74 = DESIGN_CONTEXT ( 'detailed design', #292, 'design' ) ;
#75 = CC_DESIGN_DATE_AND_TIME_ASSIGNMENT ( #318, #156, ( #205 ) ) ;
#76 = CARTESIAN_POINT ( 'NONE',  ( 2.094888803305879698E-14, 0.2749999999999963030, 5.999999999999999112 ) ) ;
#77 = FACE_OUTER_BOUND ( 'NONE', #201, .T. ) ;
#78 = AXIS2_PLACEMENT_3D ( 'NONE', #83, #135, #182 ) ;
#79 = CIRCLE ( 'NONE', #21, 0.2749999999999970801 ) ;
#80 = DIRECTION ( 'NONE',  ( -3.491481338843133355E-15, 1.224646799147353207E-16, -1.000000000000000000 ) ) ;
#81 = ORIENTED_EDGE ( 'NONE', *, *, #298, .F. ) ;
#82 = ADVANCED_FACE ( 'NONE', ( #328 ), #143, .T. ) ;
#83 = CARTESIAN_POINT ( 'NONE',  ( 2.094888803305879698E-14, -7.347880794884118750E-16, 5.999999999999999112 ) ) ;
#84 = COORDINATED_UNIVERSAL_TIME_OFFSET ( 1, 0, .AHEAD. ) ;
#85 = FACE_OUTER_BOUND ( 'NONE', #108, .T. ) ;
#86 = LINE ( 'NONE', #262, #27 ) ;
#87 = AXIS2_PLACEMENT_3D ( 'NONE', #326, #303, #37 ) ;
#88 = PLANE ( 'NONE',  #5 ) ;
#89 = EDGE_LOOP ( 'NONE', ( #291, #130, #122 ) ) ;
#90 = FACE_OUTER_BOUND ( 'NONE', #105, .T. ) ;
#91 = APPLICATION_PROTOCOL_DEFINITION ( 'international standard', 'config_control_design', 1994, #287 ) ;
#92 = AXIS2_PLACEMENT_3D ( 'NONE', #211, #69, #142 ) ;
#93 = PERSON_AND_ORGANIZATION ( #185, #296 ) ;
#94 = EDGE_CURVE ( 'NONE', #191, #19, #106, .T. ) ;
#95 = APPROVAL_DATE_TIME ( #175, #253 ) ;
#96 = LINE ( 'NONE', #174, #272 ) ;
#97 = DIRECTION ( 'NONE',  ( 1.000000000000000000, 0.0000000000000000000, 0.0000000000000000000 ) ) ;
#98 = LINE ( 'NONE', #293, #193 ) ;
#99 = APPROVAL_STATUS ( 'not_yet_approved' ) ;
#100 = CLOSED_SHELL ( 'NONE', ( #219, #312, #288, #134, #258, #209 ) ) ;
#101 = DIRECTION ( 'NONE',  ( -3.491481338843133355E-15, 1.224646799147353207E-16, -1.000000000000000000 ) ) ;
#102 = CC_DESIGN_PERSON_AND_ORGANIZATION_ASSIGNMENT ( #93, #7, ( #41 ) ) ;
#103 = ORIENTED_EDGE ( 'NONE', *, *, #17, .T. ) ;
#104 = UNCERTAINTY_MEASURE_WITH_UNIT (LENGTH_MEASURE( 1.000000000000000082E-05 ), #331, 'distance_accuracy_value', 'NONE');
#105 = EDGE_LOOP ( 'NONE', ( #48, #138, #162, #221 ) ) ;
#106 = LINE ( 'NONE', #228, #230 ) ;
#107 = DIRECTION ( 'NONE',  ( -3.491481338843133355E-15, 1.224646799147353207E-16, -1.000000000000000000 ) ) ;
#108 = EDGE_LOOP ( 'NONE', ( #4, #183, #146 ) ) ;
#109 =( NAMED_UNIT ( * ) PLANE_ANGLE_UNIT ( ) SI_UNIT ( $, .RADIAN. ) );
#110 =( GEOMETRIC_REPRESENTATION_CONTEXT ( 3 ) GLOBAL_UNCERTAINTY_ASSIGNED_CONTEXT ( ( #104 ) ) GLOBAL_UNIT_ASSIGNED_CONTEXT ( ( #331, #109, #190 ) ) REPRESENTATION_CONTEXT ( 'NONE', 'WORKASPACE' ) );
#111 = EDGE_CURVE ( 'NONE', #118, #56, #79, .T. ) ;
#112 = FACE_OUTER_BOUND ( 'NONE', #89, .T. ) ;
#113 = DIRECTION ( 'NONE',  ( 0.0000000000000000000, 1.000000000000000000, 0.0000000000000000000 ) ) ;
#114 = PRODUCT_RELATED_PRODUCT_CATEGORY ( 'detail', '', ( #41 ) ) ;
#115 = AXIS2_PLACEMENT_3D ( 'NONE', #12, #256, #14 ) ;
#116 = LOCAL_TIME ( 9, 21, 28.00000000000000000, #310 ) ;
#117 = DIRECTION ( 'NONE',  ( -3.491481338843133355E-15, 1.224646799147353207E-16, -1.000000000000000000 ) ) ;
#118 = VERTEX_POINT ( 'NONE', #225 ) ;
#119 = ADVANCED_FACE ( 'NONE', ( #336 ), #88, .T. ) ;
#120 = AXIS2_PLACEMENT_3D ( 'NONE', #242, #195, #166 ) ;
#121 = DIRECTION ( 'NONE',  ( 4.275831445896958607E-31, 1.000000000000000000, 1.224646799147353454E-16 ) ) ;
#122 = ORIENTED_EDGE ( 'NONE', *, *, #274, .T. ) ;
#123 = CALENDAR_DATE ( 2021, 3, 9 ) ;
#124 = VERTEX_POINT ( 'NONE', #50 ) ;
#125 = EDGE_CURVE ( 'NONE', #150, #124, #86, .T. ) ;
#126 = DIRECTION ( 'NONE',  ( 1.903218546456022717E-15, 0.8571673007021097801, 0.5150380749100585964 ) ) ;
#127 = AXIS2_PLACEMENT_3D ( 'NONE', #237, #335, #133 ) ;
#128 = CC_DESIGN_SECURITY_CLASSIFICATION ( #205, ( #207 ) ) ;
#129 = SECURITY_CLASSIFICATION_LEVEL ( 'unclassified' ) ;
#130 = ORIENTED_EDGE ( 'NONE', *, *, #294, .T. ) ;
#131 = DIRECTION ( 'NONE',  ( -3.491481338843133355E-15, 1.224646799147353207E-16, -1.000000000000000000 ) ) ;
#132 = ORIENTED_EDGE ( 'NONE', *, *, #23, .T. ) ;
#133 = DIRECTION ( 'NONE',  ( -3.501690807976839435E-31, -1.000000000000000000, -9.856383386231990715E-17 ) ) ;
#134 = ADVANCED_FACE ( 'NONE', ( #90 ), #264, .T. ) ;
#135 = DIRECTION ( 'NONE',  ( -3.491481338843133355E-15, 1.224646799147353207E-16, -1.000000000000000000 ) ) ;
#136 = EDGE_LOOP ( 'NONE', ( #81, #65, #1, #217 ) ) ;
#137 = DIRECTION ( 'NONE',  ( -3.491481338843133355E-15, 1.224646799147353207E-16, -1.000000000000000000 ) ) ;
#138 = ORIENTED_EDGE ( 'NONE', *, *, #250, .T. ) ;
#139 = DIRECTION ( 'NONE',  ( 0.0000000000000000000, 1.000000000000000000, 0.0000000000000000000 ) ) ;
#140 = ORIENTED_EDGE ( 'NONE', *, *, #39, .F. ) ;
#141 = ADVANCED_FACE ( 'NONE', ( #85 ), #70, .T. ) ;
#142 = DIRECTION ( 'NONE',  ( 4.275831445896957731E-31, 1.000000000000000000, 1.224646799147353207E-16 ) ) ;
#143 = CYLINDRICAL_SURFACE ( 'NONE', #260, 0.2749999999999966915 ) ;
#144 = DIRECTION ( 'NONE',  ( 4.275831445896957731E-31, 1.000000000000000000, 1.224646799147353207E-16 ) ) ;
#145 = ORIENTED_EDGE ( 'NONE', *, *, #17, .F. ) ;
#146 = ORIENTED_EDGE ( 'NONE', *, *, #302, .T. ) ;
#147 = APPROVAL ( #269, 'UNSPECIFIED' ) ;
#148 = AXIS2_PLACEMENT_3D ( 'NONE', #332, #107, #212 ) ;
#149 = CARTESIAN_POINT ( 'NONE',  ( 2.094888803305879382E-14, -3.784851220313071182E-14, 5.999999999999998224 ) ) ;
#150 = VERTEX_POINT ( 'NONE', #284 ) ;
#151 = CALENDAR_DATE ( 2021, 3, 9 ) ;
#152 = CIRCLE ( 'NONE', #325, 0.2749999999999970801 ) ;
#153 = PERSON_AND_ORGANIZATION ( #185, #296 ) ;
#154 = ADVANCED_FACE ( 'NONE', ( #112 ), #164, .T. ) ;
#155 = CALENDAR_DATE ( 2021, 3, 9 ) ;
#156 = DATE_TIME_ROLE ( 'classification_date' ) ;
#157 = AXIS2_PLACEMENT_3D ( 'NONE', #25, #244, #144 ) ;
#158 = CARTESIAN_POINT ( 'NONE',  ( 1.047444401652940007E-13, -3.673940397442059178E-15, 30.00000000000000000 ) ) ;
#159 = DIRECTION ( 'NONE',  ( 4.275831445896958607E-31, 1.000000000000000000, 1.224646799147353454E-16 ) ) ;
#160 = LINE ( 'NONE', #299, #304 ) ;
#161 = CARTESIAN_POINT ( 'NONE',  ( 1.045974206513326506E-13, -0.1750000000000037081, 30.00000000000000000 ) ) ;
#162 = ORIENTED_EDGE ( 'NONE', *, *, #184, .T. ) ;
#163 = CARTESIAN_POINT ( 'NONE',  ( 1.047444401652940007E-13, -3.673940397442059178E-15, 30.00000000000000000 ) ) ;
#164 = CONICAL_SURFACE ( 'NONE', #127, 0.2749999999999963030, 1.029744258676649649 ) ;
#165 = ORIENTED_EDGE ( 'NONE', *, *, #250, .F. ) ;
#166 = DIRECTION ( 'NONE',  ( -3.501690807976839435E-31, -1.000000000000000000, -9.856383386231990715E-17 ) ) ;
#167 = CIRCLE ( 'NONE', #226, 0.2750000000000000222 ) ;
#168 = DIRECTION ( 'NONE',  ( 3.491481338843133355E-15, -1.224646799147353207E-16, 1.000000000000000000 ) ) ;
#169 = CONICAL_SURFACE ( 'NONE', #61, 0.1750000000000000167, 0.7853981633974512766 ) ;
#170 = APPROVAL_PERSON_ORGANIZATION ( #180, #147, #315 ) ;
#171 = ADVANCED_FACE ( 'NONE', ( #30 ), #247, .T. ) ;
#172 = CARTESIAN_POINT ( 'NONE',  ( 1.175853647621657311E-31, 0.2749999999999985789, 3.367778697655204002E-17 ) ) ;
#173 = DIRECTION ( 'NONE',  ( -4.275831445896958607E-31, -1.000000000000000000, -1.224646799147353207E-16 ) ) ;
#174 = CARTESIAN_POINT ( 'NONE',  ( 3.367778697655191676E-17, -0.2749999999999985789, -3.367778697655215095E-17 ) ) ;
#175 = DATE_AND_TIME ( #123, #241 ) ;
#176 = ORIENTED_EDGE ( 'NONE', *, *, #309, .F. ) ;
#177 = CC_DESIGN_PERSON_AND_ORGANIZATION_ASSIGNMENT ( #290, #257, ( #205 ) ) ;
#178 = APPROVAL_STATUS ( 'not_yet_approved' ) ;
#179 = DIRECTION ( 'NONE',  ( -3.491481338843133355E-15, 1.224646799147353207E-16, -1.000000000000000000 ) ) ;
#180 = PERSON_AND_ORGANIZATION ( #185, #296 ) ;
#181 = AXIS2_PLACEMENT_3D ( 'NONE', #305, #80, #192 ) ;
#182 = DIRECTION ( 'NONE',  ( 0.0000000000000000000, 1.000000000000000000, 0.0000000000000000000 ) ) ;
#183 = ORIENTED_EDGE ( 'NONE', *, *, #125, .T. ) ;
#184 = EDGE_CURVE ( 'NONE', #19, #71, #55, .T. ) ;
#185 = PERSON ( 'UNSPECIFIED', 'UNSPECIFIED', 'UNSPECIFIED', ('UNSPECIFIED'), ('UNSPECIFIED'), ('UNSPECIFIED') ) ;
#186 = DIRECTION ( 'NONE',  ( -3.491481338843133355E-15, 1.224646799147353207E-16, -1.000000000000000000 ) ) ;
#187 = AXIS2_PLACEMENT_3D ( 'NONE', #323, #186, #276 ) ;
#188 = CC_DESIGN_APPROVAL ( #147, ( #205 ) ) ;
#189 = CARTESIAN_POINT ( 'NONE',  ( 1.043952920314096810E-13, -3.661693929450586610E-15, 29.89999999999999858 ) ) ;
#190 =( NAMED_UNIT ( * ) SI_UNIT ( $, .STERADIAN. ) SOLID_ANGLE_UNIT ( ) );
#191 = VERTEX_POINT ( 'NONE', #208 ) ;
#192 = DIRECTION ( 'NONE',  ( 0.0000000000000000000, 1.000000000000000000, 0.0000000000000000000 ) ) ;
#193 = VECTOR ( 'NONE', #126, 999.9999999999998863 ) ;
#194 = CARTESIAN_POINT ( 'NONE',  ( 2.094888803305879698E-14, -7.347880794884118750E-16, 5.999999999999999112 ) ) ;
#195 = DIRECTION ( 'NONE',  ( 3.491481338843133355E-15, -1.224646799147353207E-16, 1.000000000000000000 ) ) ;
#196 = CC_DESIGN_PERSON_AND_ORGANIZATION_ASSIGNMENT ( #34, #267, ( #47 ) ) ;
#197 = AXIS2_PLACEMENT_3D ( 'NONE', #275, #246, #173 ) ;
#198 = CC_DESIGN_PERSON_AND_ORGANIZATION_ASSIGNMENT ( #266, #24, ( #207 ) ) ;
#199 = EDGE_CURVE ( 'NONE', #31, #327, #96, .T. ) ;
#200 = APPROVAL_ROLE ( '' ) ;
#201 = EDGE_LOOP ( 'NONE', ( #132, #240, #140, #238 ) ) ;
#202 = APPLICATION_PROTOCOL_DEFINITION ( 'international standard', 'config_control_design', 1994, #292 ) ;
#203 = COORDINATED_UNIVERSAL_TIME_OFFSET ( 1, 0, .AHEAD. ) ;
#204 = APPROVAL_PERSON_ORGANIZATION ( #289, #253, #200 ) ;
#205 = SECURITY_CLASSIFICATION ( '', '', #129 ) ;
#206 = AXIS2_PLACEMENT_3D ( 'NONE', #6, #295, #121 ) ;
#207 = PRODUCT_DEFINITION_FORMATION_WITH_SPECIFIED_SOURCE ( 'ANY', '', #41, .NOT_KNOWN. ) ;
#208 = CARTESIAN_POINT ( 'NONE',  ( 1.047444401652940007E-13, 0.1749999999999963252, 30.00000000000000000 ) ) ;
#209 = ADVANCED_FACE ( 'NONE', ( #29 ), #300, .F. ) ;
#210 = EDGE_LOOP ( 'NONE', ( #68, #277 ) ) ;
#211 = CARTESIAN_POINT ( 'NONE',  ( 0.0000000000000000000, 0.0000000000000000000, 0.0000000000000000000 ) ) ;
#212 = DIRECTION ( 'NONE',  ( 0.0000000000000000000, 1.000000000000000000, 0.0000000000000000000 ) ) ;
#213 = CIRCLE ( 'NONE', #285, 0.1750000000000000167 ) ;
#214 = CARTESIAN_POINT ( 'NONE',  ( 6.270576781921035666E-14, -0.2750000000000036859, 29.89999999999999858 ) ) ;
#215 = EDGE_CURVE ( 'NONE', #118, #268, #245, .T. ) ;
#216 = ORIENTED_EDGE ( 'NONE', *, *, #94, .T. ) ;
#217 = ORIENTED_EDGE ( 'NONE', *, *, #302, .F. ) ;
#218 = VECTOR ( 'NONE', #60, 1000.000000000000000 ) ;
#219 = ADVANCED_FACE ( 'NONE', ( #229 ), #317, .T. ) ;
#220 = CIRCLE ( 'NONE', #78, 0.2749999999999970801 ) ;
#221 = ORIENTED_EDGE ( 'NONE', *, *, #15, .F. ) ;
#222 = ORIENTED_EDGE ( 'NONE', *, *, #239, .T. ) ;
#223 = DATE_TIME_ROLE ( 'creation_date' ) ;
#224 = LINE ( 'NONE', #227, #248 ) ;
#225 = CARTESIAN_POINT ( 'NONE',  ( 2.094888803305879698E-14, 0.2749999999999963030, 5.999999999999999112 ) ) ;
#226 = AXIS2_PLACEMENT_3D ( 'NONE', #189, #235, #113 ) ;
#227 = CARTESIAN_POINT ( 'NONE',  ( 3.367778697655169489E-17, -0.2749999999999966915, -3.367778697655192292E-17 ) ) ;
#228 = CARTESIAN_POINT ( 'NONE',  ( 1.047444401652940007E-13, 0.1749999999999963252, 30.00000000000000000 ) ) ;
#229 = FACE_OUTER_BOUND ( 'NONE', #18, .T. ) ;
#230 = VECTOR ( 'NONE', #20, 1000.000000000000114 ) ;
#231 = LOCAL_TIME ( 9, 21, 28.00000000000000000, #84 ) ;
#232 = PRODUCT_DEFINITION_SHAPE ( 'NONE', 'NONE',  #47 ) ;
#233 = ADVANCED_BREP_SHAPE_REPRESENTATION ( '247', ( #280, #54, #40 ), #110 ) ;
#234 = ORIENTED_EDGE ( 'NONE', *, *, #298, .T. ) ;
#235 = DIRECTION ( 'NONE',  ( -3.491481338843133355E-15, 1.224646799147353207E-16, -1.000000000000000000 ) ) ;
#236 = AXIS2_PLACEMENT_3D ( 'NONE', #254, #179, #9 ) ;
#237 = CARTESIAN_POINT ( 'NONE',  ( 5.769207506096251778E-16, -2.023565593020942412E-17, 0.1652366702325786807 ) ) ;
#238 = ORIENTED_EDGE ( 'NONE', *, *, #184, .F. ) ;
#239 = EDGE_CURVE ( 'NONE', #43, #31, #160, .T. ) ;
#240 = ORIENTED_EDGE ( 'NONE', *, *, #199, .T. ) ;
#241 = LOCAL_TIME ( 9, 21, 28.00000000000000000, #313 ) ;
#242 = CARTESIAN_POINT ( 'NONE',  ( 5.769207506096251778E-16, -2.023565593020942412E-17, 0.1652366702325786807 ) ) ;
#243 = CC_DESIGN_APPROVAL ( #2, ( #207 ) ) ;
#244 = DIRECTION ( 'NONE',  ( -3.491481338843133355E-15, 1.224646799147353207E-16, -1.000000000000000000 ) ) ;
#245 = LINE ( 'NONE', #72, #42 ) ;
#246 = DIRECTION ( 'NONE',  ( 3.491481338843133355E-15, -1.224646799147353207E-16, 1.000000000000000000 ) ) ;
#247 = CYLINDRICAL_SURFACE ( 'NONE', #206, 0.2749999999999966915 ) ;
#248 = VECTOR ( 'NONE', #101, 1000.000000000000000 ) ;
#249 = DATE_AND_TIME ( #151, #286 ) ;
#250 = EDGE_CURVE ( 'NONE', #31, #19, #51, .T. ) ;
#251 = PERSON_AND_ORGANIZATION_ROLE ( 'design_supplier' ) ;
#252 = DIRECTION ( 'NONE',  ( -3.491481338843133355E-15, 1.224646799147353207E-16, -1.000000000000000000 ) ) ;
#253 = APPROVAL ( #99, 'UNSPECIFIED' ) ;
#254 = CARTESIAN_POINT ( 'NONE',  ( 5.769207506096251778E-16, -2.023565593020942412E-17, 0.1652366702325786807 ) ) ;
#255 = CIRCLE ( 'NONE', #148, 0.2749999999999970801 ) ;
#256 = DIRECTION ( 'NONE',  ( -3.491481338843133355E-15, 1.224646799147353207E-16, -1.000000000000000000 ) ) ;
#257 = PERSON_AND_ORGANIZATION_ROLE ( 'classification_officer' ) ;
#258 = ADVANCED_FACE ( 'NONE', ( #67 ), #169, .T. ) ;
#259 = CARTESIAN_POINT ( 'NONE',  ( 1.079658217881073579E-14, -0.2749999999999978573, 5.999999999999999112 ) ) ;
#260 = AXIS2_PLACEMENT_3D ( 'NONE', #16, #261, #159 ) ;
#261 = DIRECTION ( 'NONE',  ( -3.491481338843133355E-15, 1.224646799147353207E-16, -1.000000000000000000 ) ) ;
#262 = CARTESIAN_POINT ( 'NONE',  ( 5.769207506096250792E-16, -0.2749999999999963030, 0.1652366702325786529 ) ) ;
#263 = ORIENTED_EDGE ( 'NONE', *, *, #23, .F. ) ;
#264 = CYLINDRICAL_SURFACE ( 'NONE', #157, 0.2749999999999985789 ) ;
#265 = CLOSED_SHELL ( 'NONE', ( #171, #154, #141, #82, #119 ) ) ;
#266 = PERSON_AND_ORGANIZATION ( #185, #296 ) ;
#267 = PERSON_AND_ORGANIZATION_ROLE ( 'creator' ) ;
#268 = VERTEX_POINT ( 'NONE', #26 ) ;
#269 = APPROVAL_STATUS ( 'not_yet_approved' ) ;
#270 = ORIENTED_EDGE ( 'NONE', *, *, #215, .F. ) ;
#271 = CARTESIAN_POINT ( 'NONE',  ( 1.047444401652940007E-13, 1.312289809829070327E-33, 30.00000000000000000 ) ) ;
#272 = VECTOR ( 'NONE', #252, 1000.000000000000000 ) ;
#273 = DIRECTION ( 'NONE',  ( -3.491481338843133355E-15, 1.224646799147353207E-16, -1.000000000000000000 ) ) ;
#274 = EDGE_CURVE ( 'NONE', #268, #124, #13, .T. ) ;
#275 = CARTESIAN_POINT ( 'NONE',  ( 2.094888803305879382E-14, -3.784851220313071182E-14, 5.999999999999998224 ) ) ;
#276 = DIRECTION ( 'NONE',  ( 0.0000000000000000000, 1.000000000000000000, 0.0000000000000000000 ) ) ;
#277 = ORIENTED_EDGE ( 'NONE', *, *, #15, .T. ) ;
#278 = CC_DESIGN_APPROVAL ( #253, ( #47 ) ) ;
#279 = APPROVAL_PERSON_ORGANIZATION ( #316, #2, #36 ) ;
#280 = MANIFOLD_SOLID_BREP ( 'Corps-Déplacer/Copier1[1]', #100 ) ;
#281 = APPROVAL_DATE_TIME ( #337, #2 ) ;
#282 = CIRCLE ( 'NONE', #115, 0.2749999999999963030 ) ;
#283 = LOCAL_TIME ( 9, 21, 28.00000000000000000, #203 ) ;
#284 = CARTESIAN_POINT ( 'NONE',  ( 0.0000000000000000000, 0.0000000000000000000, 0.0000000000000000000 ) ) ;
#285 = AXIS2_PLACEMENT_3D ( 'NONE', #163, #334, #139 ) ;
#286 = LOCAL_TIME ( 9, 21, 28.00000000000000000, #320 ) ;
#287 = APPLICATION_CONTEXT ( 'configuration controlled 3d designs of mechanical parts and assemblies' ) ;
#288 = ADVANCED_FACE ( 'NONE', ( #314 ), #35, .F. ) ;
#289 = PERSON_AND_ORGANIZATION ( #185, #296 ) ;
#290 = PERSON_AND_ORGANIZATION ( #185, #296 ) ;
#291 = ORIENTED_EDGE ( 'NONE', *, *, #125, .F. ) ;
#292 = APPLICATION_CONTEXT ( 'configuration controlled 3d designs of mechanical parts and assemblies' ) ;
#293 = CARTESIAN_POINT ( 'NONE',  ( 6.105985375861770082E-16, 0.2749999999999963030, 0.1652366702325787085 ) ) ;
#294 = EDGE_CURVE ( 'NONE', #150, #268, #98, .T. ) ;
#295 = DIRECTION ( 'NONE',  ( -3.491481338843133355E-15, 1.224646799147353207E-16, -1.000000000000000000 ) ) ;
#296 = ORGANIZATION ( 'UNSPECIFIED', 'UNSPECIFIED', '' ) ;
#297 = ORIENTED_EDGE ( 'NONE', *, *, #111, .F. ) ;
#298 = EDGE_CURVE ( 'NONE', #56, #124, #224, .T. ) ;
#299 = CARTESIAN_POINT ( 'NONE',  ( 1.047658714842790812E-13, -0.1750000000000037081, 30.00000000000000000 ) ) ;
#300 = PLANE ( 'NONE',  #306 ) ;
#301 = CARTESIAN_POINT ( 'NONE',  ( 6.270576781921069744E-14, -0.2749999999999978573, 5.999999999999999112 ) ) ;
#302 = EDGE_CURVE ( 'NONE', #124, #268, #282, .T. ) ;
#303 = DIRECTION ( 'NONE',  ( -3.491481338843133355E-15, 1.224646799147353207E-16, -1.000000000000000000 ) ) ;
#304 = VECTOR ( 'NONE', #44, 1000.000000000000114 ) ;
#305 = CARTESIAN_POINT ( 'NONE',  ( 1.047444401652940007E-13, -3.673940397442059178E-15, 30.00000000000000000 ) ) ;
#306 = AXIS2_PLACEMENT_3D ( 'NONE', #271, #117, #64 ) ;
#307 = DIRECTION ( 'NONE',  ( -4.275831445896958607E-31, -1.000000000000000000, -1.224646799147353207E-16 ) ) ;
#308 = DIRECTION ( 'NONE',  ( -3.491481338843133355E-15, 1.224646799147353207E-16, -1.000000000000000000 ) ) ;
#309 = EDGE_CURVE ( 'NONE', #56, #118, #152, .T. ) ;
#310 = COORDINATED_UNIVERSAL_TIME_OFFSET ( 1, 0, .AHEAD. ) ;
#311 = ORIENTED_EDGE ( 'NONE', *, *, #239, .F. ) ;
#312 = ADVANCED_FACE ( 'NONE', ( #77 ), #73, .T. ) ;
#313 = COORDINATED_UNIVERSAL_TIME_OFFSET ( 1, 0, .AHEAD. ) ;
#314 = FACE_OUTER_BOUND ( 'NONE', #210, .T. ) ;
#315 = APPROVAL_ROLE ( '' ) ;
#316 = PERSON_AND_ORGANIZATION ( #185, #296 ) ;
#317 = CONICAL_SURFACE ( 'NONE', #187, 0.1750000000000000167, 0.7853981633974512766 ) ;
#318 = DATE_AND_TIME ( #57, #283 ) ;
#319 = EDGE_LOOP ( 'NONE', ( #63, #145 ) ) ;
#320 = COORDINATED_UNIVERSAL_TIME_OFFSET ( 1, 0, .AHEAD. ) ;
#321 = CC_DESIGN_DATE_AND_TIME_ASSIGNMENT ( #8, #223, ( #47 ) ) ;
#322 = CARTESIAN_POINT ( 'NONE',  ( 2.094888803305879698E-14, -7.347880794884118750E-16, 5.999999999999999112 ) ) ;
#323 = CARTESIAN_POINT ( 'NONE',  ( 1.047444401652940007E-13, -3.673940397442059178E-15, 30.00000000000000000 ) ) ;
#324 = DIRECTION ( 'NONE',  ( 0.0000000000000000000, 1.000000000000000000, 0.0000000000000000000 ) ) ;
#325 = AXIS2_PLACEMENT_3D ( 'NONE', #194, #137, #324 ) ;
#326 = CARTESIAN_POINT ( 'NONE',  ( 1.043952920314096810E-13, -3.661693929450586610E-15, 29.89999999999999858 ) ) ;
#327 = VERTEX_POINT ( 'NONE', #301 ) ;
#328 = FACE_OUTER_BOUND ( 'NONE', #136, .T. ) ;
#329 = ORIENTED_EDGE ( 'NONE', *, *, #111, .T. ) ;
#330 = EDGE_CURVE ( 'NONE', #191, #43, #213, .T. ) ;
#331 =( LENGTH_UNIT ( ) NAMED_UNIT ( * ) SI_UNIT ( .MILLI., .METRE. ) );
#332 = CARTESIAN_POINT ( 'NONE',  ( 2.094888803305879698E-14, -7.347880794884118750E-16, 5.999999999999999112 ) ) ;
#333 = EDGE_LOOP ( 'NONE', ( #297, #176 ) ) ;
#334 = DIRECTION ( 'NONE',  ( -3.491481338843133355E-15, 1.224646799147353207E-16, -1.000000000000000000 ) ) ;
#335 = DIRECTION ( 'NONE',  ( 3.491481338843133355E-15, -1.224646799147353207E-16, 1.000000000000000000 ) ) ;
#336 = FACE_OUTER_BOUND ( 'NONE', #333, .T. ) ;
#337 = DATE_AND_TIME ( #49, #231 ) ;
ENDSEC;
END-ISO-10303-21;
