ISO-10303-21;
HEADER;
FILE_DESCRIPTION (( 'STEP AP203' ),
    '1' );
FILE_NAME ('246.step',
    '2021-09-03T07:21:27',
    ( '' ),
    ( '' ),
    'SwSTEP 2.0',
    'SolidWorks 2019',
    '' );
FILE_SCHEMA (( 'CONFIG_CONTROL_DESIGN' ));
ENDSEC;

DATA;
#1 = EDGE_CURVE ( 'NONE', #74, #81, #260, .T. ) ;
#2 = DIRECTION ( 'NONE',  ( -3.491481338843133355E-15, 1.224646799147353207E-16, -1.000000000000000000 ) ) ;
#3 = APPLICATION_CONTEXT ( 'configuration controlled 3d designs of mechanical parts and assemblies' ) ;
#4 = CARTESIAN_POINT ( 'NONE',  ( 1.045943590343347891E-13, -0.1500000000000037137, 30.00000000000000000 ) ) ;
#5 = DIRECTION ( 'NONE',  ( -3.491481338843133355E-15, 1.224646799147353207E-16, -1.000000000000000000 ) ) ;
#6 = DIRECTION ( 'NONE',  ( 4.275831445896959482E-31, 1.000000000000000000, 1.224646799147353207E-16 ) ) ;
#7 = CARTESIAN_POINT ( 'NONE',  ( 1.047444401652940007E-13, 0.1499999999999963307, 30.00000000000000000 ) ) ;
#8 = CYLINDRICAL_SURFACE ( 'NONE', #335, 0.2499999999999985290 ) ;
#9 = CC_DESIGN_PERSON_AND_ORGANIZATION_ASSIGNMENT ( #18, #228, ( #119 ) ) ;
#10 = ORIENTED_EDGE ( 'NONE', *, *, #124, .T. ) ;
#11 = DIRECTION ( 'NONE',  ( -3.491481338843133355E-15, 1.224646799147353207E-16, -1.000000000000000000 ) ) ;
#12 = APPLICATION_CONTEXT ( 'configuration controlled 3d designs of mechanical parts and assemblies' ) ;
#13 = ORIENTED_EDGE ( 'NONE', *, *, #161, .T. ) ;
#14 = CIRCLE ( 'NONE', #200, 0.1500000000000000222 ) ;
#15 = EDGE_LOOP ( 'NONE', ( #243, #45 ) ) ;
#16 = EDGE_CURVE ( 'NONE', #140, #46, #229, .T. ) ;
#17 = CARTESIAN_POINT ( 'NONE',  ( 2.094888803305879698E-14, -7.347880794884118750E-16, 5.999999999999999112 ) ) ;
#18 = PERSON_AND_ORGANIZATION ( #104, #25 ) ;
#19 = CC_DESIGN_APPROVAL ( #132, ( #295 ) ) ;
#20 = EDGE_CURVE ( 'NONE', #111, #74, #203, .T. ) ;
#21 = PERSON_AND_ORGANIZATION ( #104, #25 ) ;
#22 = CARTESIAN_POINT ( 'NONE',  ( 1.043952920314096810E-13, -3.661693929450586610E-15, 29.89999999999999858 ) ) ;
#23 = DATE_TIME_ROLE ( 'classification_date' ) ;
#24 = PRODUCT_DEFINITION_SHAPE ( 'NONE', 'NONE',  #118 ) ;
#25 = ORGANIZATION ( 'UNSPECIFIED', 'UNSPECIFIED', '' ) ;
#26 = FACE_OUTER_BOUND ( 'NONE', #67, .T. ) ;
#27 = DIRECTION ( 'NONE',  ( 4.275831445896959482E-31, 1.000000000000000000, 1.224646799147353207E-16 ) ) ;
#28 = EDGE_LOOP ( 'NONE', ( #275, #69, #174 ) ) ;
#29 = AXIS2_PLACEMENT_3D ( 'NONE', #273, #40, #252 ) ;
#30 = ADVANCED_FACE ( 'NONE', ( #102 ), #292, .T. ) ;
#31 = DIRECTION ( 'NONE',  ( 0.0000000000000000000, 0.0000000000000000000, 1.000000000000000000 ) ) ;
#32 = DIRECTION ( 'NONE',  ( 3.491481338843133355E-15, -1.224646799147353207E-16, 1.000000000000000000 ) ) ;
#33 = LOCAL_TIME ( 9, 21, 27.00000000000000000, #123 ) ;
#34 = ORIENTED_EDGE ( 'NONE', *, *, #305, .F. ) ;
#35 = CARTESIAN_POINT ( 'NONE',  ( 5.244734096451127760E-16, -0.2499999999999963085, 0.1502151547568894296 ) ) ;
#36 = EDGE_LOOP ( 'NONE', ( #34, #170, #10 ) ) ;
#37 = ORIENTED_EDGE ( 'NONE', *, *, #39, .F. ) ;
#38 = DIRECTION ( 'NONE',  ( -3.491481338843133355E-15, 1.224646799147353207E-16, -1.000000000000000000 ) ) ;
#39 = EDGE_CURVE ( 'NONE', #135, #100, #256, .T. ) ;
#40 = DIRECTION ( 'NONE',  ( -3.491481338843133355E-15, 1.224646799147353207E-16, -1.000000000000000000 ) ) ;
#41 = DESIGN_CONTEXT ( 'detailed design', #3, 'design' ) ;
#42 = ORIENTED_EDGE ( 'NONE', *, *, #20, .F. ) ;
#43 = VECTOR ( 'NONE', #285, 1000.000000000000114 ) ;
#44 = PERSON_AND_ORGANIZATION ( #104, #25 ) ;
#45 = ORIENTED_EDGE ( 'NONE', *, *, #16, .F. ) ;
#46 = VERTEX_POINT ( 'NONE', #298 ) ;
#47 = ADVANCED_FACE ( 'NONE', ( #173 ), #210, .T. ) ;
#48 = DIRECTION ( 'NONE',  ( 0.0000000000000000000, 1.000000000000000000, 0.0000000000000000000 ) ) ;
#49 = CARTESIAN_POINT ( 'NONE',  ( 0.0000000000000000000, 0.0000000000000000000, 0.0000000000000000000 ) ) ;
#50 =( GEOMETRIC_REPRESENTATION_CONTEXT ( 3 ) GLOBAL_UNCERTAINTY_ASSIGNED_CONTEXT ( ( #105 ) ) GLOBAL_UNIT_ASSIGNED_CONTEXT ( ( #91, #143, #236 ) ) REPRESENTATION_CONTEXT ( 'NONE', 'WORKASPACE' ) );
#51 = PLANE ( 'NONE',  #79 ) ;
#52 = MANIFOLD_SOLID_BREP ( 'Corps-Déplacer/Copier1[2]', #208 ) ;
#53 = AXIS2_PLACEMENT_3D ( 'NONE', #194, #264, #115 ) ;
#54 = DATE_AND_TIME ( #85, #235 ) ;
#55 = VERTEX_POINT ( 'NONE', #122 ) ;
#56 = AXIS2_PLACEMENT_3D ( 'NONE', #126, #181, #128 ) ;
#57 = FACE_OUTER_BOUND ( 'NONE', #15, .T. ) ;
#58 = DIRECTION ( 'NONE',  ( -3.491481338843133355E-15, 1.224646799147353207E-16, -1.000000000000000000 ) ) ;
#59 = FACE_OUTER_BOUND ( 'NONE', #168, .T. ) ;
#60 = DIRECTION ( 'NONE',  ( 0.0000000000000000000, 1.000000000000000000, 0.0000000000000000000 ) ) ;
#61 = MECHANICAL_CONTEXT ( 'NONE', #12, 'mechanical' ) ;
#62 = MANIFOLD_SOLID_BREP ( 'Corps-Déplacer/Copier1[1]', #71 ) ;
#63 = VECTOR ( 'NONE', #58, 1000.000000000000000 ) ;
#64 = VECTOR ( 'NONE', #268, 1000.000000000000000 ) ;
#65 = PLANE ( 'NONE',  #279 ) ;
#66 = DIRECTION ( 'NONE',  ( -3.491481338843133355E-15, 1.224646799147353207E-16, -1.000000000000000000 ) ) ;
#67 = EDGE_LOOP ( 'NONE', ( #198, #272, #283, #224 ) ) ;
#68 = DIRECTION ( 'NONE',  ( 1.798245827342159528E-15, -0.8571673007021100021, 0.5150380749100580413 ) ) ;
#69 = ORIENTED_EDGE ( 'NONE', *, *, #305, .T. ) ;
#70 = AXIS2_PLACEMENT_3D ( 'NONE', #320, #66, #6 ) ;
#71 = CLOSED_SHELL ( 'NONE', ( #47, #230, #113, #83, #30, #238 ) ) ;
#72 = CALENDAR_DATE ( 2021, 3, 9 ) ;
#73 = CARTESIAN_POINT ( 'NONE',  ( 0.0000000000000000000, 0.0000000000000000000, 0.0000000000000000000 ) ) ;
#74 = VERTEX_POINT ( 'NONE', #35 ) ;
#75 = DIRECTION ( 'NONE',  ( -4.275831445896958607E-31, -1.000000000000000000, -1.224646799147353207E-16 ) ) ;
#76 = COORDINATED_UNIVERSAL_TIME_OFFSET ( 1, 0, .AHEAD. ) ;
#77 = EDGE_LOOP ( 'NONE', ( #166, #97 ) ) ;
#78 = CONICAL_SURFACE ( 'NONE', #158, 0.2499999999999963085, 1.029744258676649871 ) ;
#79 = AXIS2_PLACEMENT_3D ( 'NONE', #184, #277, #75 ) ;
#80 = APPROVAL_ROLE ( '' ) ;
#81 = VERTEX_POINT ( 'NONE', #84 ) ;
#82 = CARTESIAN_POINT ( 'NONE',  ( 2.094888803305879698E-14, 0.2499999999999963085, 5.999999999999999112 ) ) ;
#83 = ADVANCED_FACE ( 'NONE', ( #281 ), #8, .T. ) ;
#84 = CARTESIAN_POINT ( 'NONE',  ( 5.550895796237963659E-16, 0.2499999999999963085, 0.1502151547568894852 ) ) ;
#85 = CALENDAR_DATE ( 2021, 3, 9 ) ;
#86 = CYLINDRICAL_SURFACE ( 'NONE', #112, 0.2499999999999966971 ) ;
#87 = DIRECTION ( 'NONE',  ( -3.491481338843133355E-15, 1.224646799147353207E-16, -1.000000000000000000 ) ) ;
#88 = AXIS2_PLACEMENT_3D ( 'NONE', #165, #278, #116 ) ;
#89 = EDGE_CURVE ( 'NONE', #140, #55, #177, .T. ) ;
#90 = DIRECTION ( 'NONE',  ( 4.275831445896958607E-31, 1.000000000000000000, 1.224646799147353207E-16 ) ) ;
#91 =( LENGTH_UNIT ( ) NAMED_UNIT ( * ) SI_UNIT ( .MILLI., .METRE. ) );
#92 = ORIENTED_EDGE ( 'NONE', *, *, #270, .F. ) ;
#93 = LOCAL_TIME ( 9, 21, 27.00000000000000000, #134 ) ;
#94 = CC_DESIGN_PERSON_AND_ORGANIZATION_ASSIGNMENT ( #44, #138, ( #118 ) ) ;
#95 = DIRECTION ( 'NONE',  ( 1.000000000000000000, 0.0000000000000000000, 0.0000000000000000000 ) ) ;
#96 = CARTESIAN_POINT ( 'NONE',  ( 2.094888803305879698E-14, -7.347880794884118750E-16, 5.999999999999999112 ) ) ;
#97 = ORIENTED_EDGE ( 'NONE', *, *, #207, .T. ) ;
#98 = CARTESIAN_POINT ( 'NONE',  ( 1.047444401652940007E-13, -3.673940397442059178E-15, 30.00000000000000000 ) ) ;
#99 = DIRECTION ( 'NONE',  ( -3.491481338843133355E-15, 1.224646799147353207E-16, -1.000000000000000000 ) ) ;
#100 = VERTEX_POINT ( 'NONE', #304 ) ;
#101 = DIRECTION ( 'NONE',  ( -3.491481338843133355E-15, 1.224646799147353207E-16, -1.000000000000000000 ) ) ;
#102 = FACE_OUTER_BOUND ( 'NONE', #183, .T. ) ;
#103 = DIRECTION ( 'NONE',  ( -3.491481338843133355E-15, 1.224646799147353207E-16, -1.000000000000000000 ) ) ;
#104 = PERSON ( 'UNSPECIFIED', 'UNSPECIFIED', 'UNSPECIFIED', ('UNSPECIFIED'), ('UNSPECIFIED'), ('UNSPECIFIED') ) ;
#105 = UNCERTAINTY_MEASURE_WITH_UNIT (LENGTH_MEASURE( 1.000000000000000082E-05 ), #91, 'distance_accuracy_value', 'NONE');
#106 = AXIS2_PLACEMENT_3D ( 'NONE', #73, #31, #95 ) ;
#107 = SECURITY_CLASSIFICATION_LEVEL ( 'unclassified' ) ;
#108 = PERSON_AND_ORGANIZATION ( #104, #25 ) ;
#109 = DIRECTION ( 'NONE',  ( 4.275831445896958607E-31, 1.000000000000000000, 1.224646799147353207E-16 ) ) ;
#110 = DATE_TIME_ROLE ( 'creation_date' ) ;
#111 = VERTEX_POINT ( 'NONE', #336 ) ;
#112 = AXIS2_PLACEMENT_3D ( 'NONE', #49, #284, #27 ) ;
#113 = ADVANCED_FACE ( 'NONE', ( #216 ), #51, .F. ) ;
#114 = APPROVAL_STATUS ( 'not_yet_approved' ) ;
#115 = DIRECTION ( 'NONE',  ( 0.0000000000000000000, 1.000000000000000000, 0.0000000000000000000 ) ) ;
#116 = DIRECTION ( 'NONE',  ( 3.851859888774528634E-31, 1.000000000000000000, 1.084202172485520458E-16 ) ) ;
#117 = APPROVAL_DATE_TIME ( #145, #150 ) ;
#118 = PRODUCT_DEFINITION ( 'UNKNOWN', '', #295, #41 ) ;
#119 = SECURITY_CLASSIFICATION ( '', '', #107 ) ;
#120 = CARTESIAN_POINT ( 'NONE',  ( 1.043952920314096810E-13, 0.2499999999999963085, 29.89999999999999858 ) ) ;
#121 = APPROVAL_STATUS ( 'not_yet_approved' ) ;
#122 = CARTESIAN_POINT ( 'NONE',  ( 6.270270620221243211E-14, -0.2500000000000036637, 29.89999999999999858 ) ) ;
#123 = COORDINATED_UNIVERSAL_TIME_OFFSET ( 1, 0, .AHEAD. ) ;
#124 = EDGE_CURVE ( 'NONE', #81, #74, #136, .T. ) ;
#125 = VERTEX_POINT ( 'NONE', #120 ) ;
#126 = CARTESIAN_POINT ( 'NONE',  ( 2.094888803305879382E-14, -4.163336342344383096E-14, 5.999999999999998224 ) ) ;
#127 = APPROVAL_PERSON_ORGANIZATION ( #213, #132, #80 ) ;
#128 = DIRECTION ( 'NONE',  ( -4.275831445896958607E-31, -1.000000000000000000, -1.224646799147353207E-16 ) ) ;
#129 = CARTESIAN_POINT ( 'NONE',  ( 2.094888803305879698E-14, -7.347880794884118750E-16, 5.999999999999999112 ) ) ;
#130 = ORIENTED_EDGE ( 'NONE', *, *, #175, .F. ) ;
#131 = DIRECTION ( 'NONE',  ( 0.0000000000000000000, 1.000000000000000000, 0.0000000000000000000 ) ) ;
#132 = APPROVAL ( #308, 'UNSPECIFIED' ) ;
#133 = PERSON_AND_ORGANIZATION ( #104, #25 ) ;
#134 = COORDINATED_UNIVERSAL_TIME_OFFSET ( 1, 0, .AHEAD. ) ;
#135 = VERTEX_POINT ( 'NONE', #82 ) ;
#136 = CIRCLE ( 'NONE', #88, 0.2499999999999963085 ) ;
#137 = ORIENTED_EDGE ( 'NONE', *, *, #16, .T. ) ;
#138 = PERSON_AND_ORGANIZATION_ROLE ( 'creator' ) ;
#139 = EDGE_CURVE ( 'NONE', #55, #100, #276, .T. ) ;
#140 = VERTEX_POINT ( 'NONE', #4 ) ;
#141 = PERSON_AND_ORGANIZATION_ROLE ( 'creator' ) ;
#142 = VECTOR ( 'NONE', #68, 1000.000000000000000 ) ;
#143 =( NAMED_UNIT ( * ) PLANE_ANGLE_UNIT ( ) SI_UNIT ( $, .RADIAN. ) );
#144 = APPROVAL_ROLE ( '' ) ;
#145 = DATE_AND_TIME ( #72, #33 ) ;
#146 = FACE_OUTER_BOUND ( 'NONE', #164, .T. ) ;
#147 = AXIS2_PLACEMENT_3D ( 'NONE', #296, #311, #109 ) ;
#148 = CARTESIAN_POINT ( 'NONE',  ( 1.043952920314096810E-13, -3.661693929450586610E-15, 29.89999999999999858 ) ) ;
#149 = ADVANCED_FACE ( 'NONE', ( #146 ), #86, .T. ) ;
#150 = APPROVAL ( #121, 'UNSPECIFIED' ) ;
#151 = CARTESIAN_POINT ( 'NONE',  ( 0.0000000000000000000, 0.0000000000000000000, 0.0000000000000000000 ) ) ;
#152 = LOCAL_TIME ( 9, 21, 27.00000000000000000, #76 ) ;
#153 = FACE_OUTER_BOUND ( 'NONE', #249, .T. ) ;
#154 = EDGE_CURVE ( 'NONE', #46, #125, #266, .T. ) ;
#155 = ORIENTED_EDGE ( 'NONE', *, *, #199, .F. ) ;
#156 = CARTESIAN_POINT ( 'NONE',  ( 1.068957861474225639E-31, 0.2499999999999966971, 3.061616997868342342E-17 ) ) ;
#157 = DIRECTION ( 'NONE',  ( -3.491481338843133355E-15, 1.224646799147353207E-16, -1.000000000000000000 ) ) ;
#158 = AXIS2_PLACEMENT_3D ( 'NONE', #269, #32, #310 ) ;
#159 = ORIENTED_EDGE ( 'NONE', *, *, #331, .T. ) ;
#160 = PERSON_AND_ORGANIZATION_ROLE ( 'design_supplier' ) ;
#161 = EDGE_CURVE ( 'NONE', #291, #81, #316, .T. ) ;
#162 = DATE_AND_TIME ( #185, #221 ) ;
#163 = PERSON_AND_ORGANIZATION_ROLE ( 'design_owner' ) ;
#164 = EDGE_LOOP ( 'NONE', ( #42, #337, #13, #326 ) ) ;
#165 = CARTESIAN_POINT ( 'NONE',  ( 5.244734096451128746E-16, -1.839605084564490048E-17, 0.1502151547568894574 ) ) ;
#166 = ORIENTED_EDGE ( 'NONE', *, *, #39, .T. ) ;
#167 = FACE_OUTER_BOUND ( 'NONE', #28, .T. ) ;
#168 = EDGE_LOOP ( 'NONE', ( #130, #328 ) ) ;
#169 = AXIS2_PLACEMENT_3D ( 'NONE', #204, #244, #206 ) ;
#170 = ORIENTED_EDGE ( 'NONE', *, *, #248, .T. ) ;
#171 = PRODUCT_RELATED_PRODUCT_CATEGORY ( 'detail', '', ( #254 ) ) ;
#172 = APPLICATION_PROTOCOL_DEFINITION ( 'international standard', 'config_control_design', 1994, #12 ) ;
#173 = FACE_OUTER_BOUND ( 'NONE', #192, .T. ) ;
#174 = ORIENTED_EDGE ( 'NONE', *, *, #1, .T. ) ;
#175 = EDGE_CURVE ( 'NONE', #291, #111, #274, .T. ) ;
#176 = CIRCLE ( 'NONE', #250, 0.2500000000000000000 ) ;
#177 = LINE ( 'NONE', #271, #43 ) ;
#178 = CARTESIAN_POINT ( 'NONE',  ( 1.047444401652940007E-13, 1.124819836996337954E-33, 30.00000000000000000 ) ) ;
#179 = CARTESIAN_POINT ( 'NONE',  ( 3.061616997868332482E-17, -0.2499999999999966971, -3.061616997868352819E-17 ) ) ;
#180 = ORIENTED_EDGE ( 'NONE', *, *, #199, .T. ) ;
#181 = DIRECTION ( 'NONE',  ( 3.491481338843133355E-15, -1.224646799147353207E-16, 1.000000000000000000 ) ) ;
#182 = ORIENTED_EDGE ( 'NONE', *, *, #255, .F. ) ;
#183 = EDGE_LOOP ( 'NONE', ( #334, #137, #189, #92 ) ) ;
#184 = CARTESIAN_POINT ( 'NONE',  ( 2.094888803305879382E-14, -4.163336342344383096E-14, 5.999999999999998224 ) ) ;
#185 = CALENDAR_DATE ( 2021, 3, 9 ) ;
#186 = DIRECTION ( 'NONE',  ( -3.851859888774528634E-31, -1.000000000000000000, -1.084202172485520458E-16 ) ) ;
#187 = ADVANCED_FACE ( 'NONE', ( #59 ), #247, .T. ) ;
#188 = AXIS2_PLACEMENT_3D ( 'NONE', #98, #101, #294 ) ;
#189 = ORIENTED_EDGE ( 'NONE', *, *, #154, .T. ) ;
#190 = APPROVAL_PERSON_ORGANIZATION ( #225, #150, #290 ) ;
#191 = COORDINATED_UNIVERSAL_TIME_OFFSET ( 1, 0, .AHEAD. ) ;
#192 = EDGE_LOOP ( 'NONE', ( #159, #212, #182, #215 ) ) ;
#193 = DIRECTION ( 'NONE',  ( 1.903218546456021928E-15, 0.8571673007021098911, 0.5150380749100583744 ) ) ;
#194 = CARTESIAN_POINT ( 'NONE',  ( 1.047444401652940007E-13, -3.673940397442059178E-15, 30.00000000000000000 ) ) ;
#195 = APPROVAL_DATE_TIME ( #54, #324 ) ;
#196 = AXIS2_PLACEMENT_3D ( 'NONE', #315, #157, #321 ) ;
#197 = AXIS2_PLACEMENT_3D ( 'NONE', #96, #38, #253 ) ;
#198 = ORIENTED_EDGE ( 'NONE', *, *, #175, .T. ) ;
#199 = EDGE_CURVE ( 'NONE', #125, #135, #319, .T. ) ;
#200 = AXIS2_PLACEMENT_3D ( 'NONE', #261, #87, #241 ) ;
#201 = FACE_OUTER_BOUND ( 'NONE', #36, .T. ) ;
#202 = CC_DESIGN_PERSON_AND_ORGANIZATION_ASSIGNMENT ( #133, #160, ( #295 ) ) ;
#203 = LINE ( 'NONE', #179, #63 ) ;
#204 = CARTESIAN_POINT ( 'NONE',  ( 2.094888803305879698E-14, -7.347880794884118750E-16, 5.999999999999999112 ) ) ;
#205 = AXIS2_PLACEMENT_3D ( 'NONE', #329, #211, #186 ) ;
#206 = DIRECTION ( 'NONE',  ( 0.0000000000000000000, 1.000000000000000000, 0.0000000000000000000 ) ) ;
#207 = EDGE_CURVE ( 'NONE', #100, #135, #307, .T. ) ;
#208 = CLOSED_SHELL ( 'NONE', ( #280, #313, #267, #149, #187 ) ) ;
#209 = AXIS2_PLACEMENT_3D ( 'NONE', #129, #103, #60 ) ;
#210 = CONICAL_SURFACE ( 'NONE', #53, 0.1500000000000000222, 0.7853981633974512766 ) ;
#211 = DIRECTION ( 'NONE',  ( 3.491481338843133355E-15, -1.224646799147353207E-16, 1.000000000000000000 ) ) ;
#212 = ORIENTED_EDGE ( 'NONE', *, *, #89, .T. ) ;
#213 = PERSON_AND_ORGANIZATION ( #104, #25 ) ;
#214 = VECTOR ( 'NONE', #289, 1000.000000000000114 ) ;
#215 = ORIENTED_EDGE ( 'NONE', *, *, #154, .F. ) ;
#216 = FACE_OUTER_BOUND ( 'NONE', #77, .T. ) ;
#217 = COORDINATED_UNIVERSAL_TIME_OFFSET ( 1, 0, .AHEAD. ) ;
#218 = LINE ( 'NONE', #262, #240 ) ;
#219 = CC_DESIGN_APPROVAL ( #150, ( #119 ) ) ;
#220 = CC_DESIGN_DATE_AND_TIME_ASSIGNMENT ( #325, #23, ( #119 ) ) ;
#221 = LOCAL_TIME ( 9, 21, 27.00000000000000000, #191 ) ;
#222 = CARTESIAN_POINT ( 'NONE',  ( 5.244734096451127760E-16, -0.2499999999999963085, 0.1502151547568894296 ) ) ;
#223 = CARTESIAN_POINT ( 'NONE',  ( 2.094888803305879698E-14, 0.2499999999999963085, 5.999999999999999112 ) ) ;
#224 = ORIENTED_EDGE ( 'NONE', *, *, #161, .F. ) ;
#225 = PERSON_AND_ORGANIZATION ( #104, #25 ) ;
#226 = VERTEX_POINT ( 'NONE', #151 ) ;
#227 = DIRECTION ( 'NONE',  ( -3.491481338843133355E-15, 1.224646799147353207E-16, -1.000000000000000000 ) ) ;
#228 = PERSON_AND_ORGANIZATION_ROLE ( 'classification_officer' ) ;
#229 = CIRCLE ( 'NONE', #188, 0.1500000000000000222 ) ;
#230 = ADVANCED_FACE ( 'NONE', ( #153 ), #246, .T. ) ;
#231 = CARTESIAN_POINT ( 'NONE',  ( 3.061616997868354668E-17, -0.2499999999999985290, -3.061616997868375622E-17 ) ) ;
#232 = ADVANCED_BREP_SHAPE_REPRESENTATION ( '246', ( #62, #52, #106 ), #50 ) ;
#233 = CALENDAR_DATE ( 2021, 3, 9 ) ;
#234 = APPLICATION_PROTOCOL_DEFINITION ( 'international standard', 'config_control_design', 1994, #3 ) ;
#235 = LOCAL_TIME ( 9, 21, 27.00000000000000000, #217 ) ;
#236 =( NAMED_UNIT ( * ) SI_UNIT ( $, .STERADIAN. ) SOLID_ANGLE_UNIT ( ) );
#237 = CYLINDRICAL_SURFACE ( 'NONE', #70, 0.2499999999999966971 ) ;
#238 = ADVANCED_FACE ( 'NONE', ( #57 ), #65, .F. ) ;
#239 = DIRECTION ( 'NONE',  ( -3.491481338843133355E-15, 1.224646799147353207E-16, -1.000000000000000000 ) ) ;
#240 = VECTOR ( 'NONE', #193, 1000.000000000000114 ) ;
#241 = DIRECTION ( 'NONE',  ( 0.0000000000000000000, 1.000000000000000000, 0.0000000000000000000 ) ) ;
#242 = DIRECTION ( 'NONE',  ( -3.491481338843133355E-15, 1.224646799147353207E-16, -1.000000000000000000 ) ) ;
#243 = ORIENTED_EDGE ( 'NONE', *, *, #331, .F. ) ;
#244 = DIRECTION ( 'NONE',  ( -3.491481338843133355E-15, 1.224646799147353207E-16, -1.000000000000000000 ) ) ;
#245 = CC_DESIGN_PERSON_AND_ORGANIZATION_ASSIGNMENT ( #330, #141, ( #295 ) ) ;
#246 = CYLINDRICAL_SURFACE ( 'NONE', #147, 0.2499999999999985290 ) ;
#247 = PLANE ( 'NONE',  #56 ) ;
#248 = EDGE_CURVE ( 'NONE', #226, #81, #218, .T. ) ;
#249 = EDGE_LOOP ( 'NONE', ( #314, #306, #37, #155 ) ) ;
#250 = AXIS2_PLACEMENT_3D ( 'NONE', #22, #239, #48 ) ;
#251 = EDGE_LOOP ( 'NONE', ( #332, #303, #180, #302 ) ) ;
#252 = DIRECTION ( 'NONE',  ( 0.0000000000000000000, 1.000000000000000000, 0.0000000000000000000 ) ) ;
#253 = DIRECTION ( 'NONE',  ( 0.0000000000000000000, 1.000000000000000000, 0.0000000000000000000 ) ) ;
#254 = PRODUCT ( '246', '246', '', ( #61 ) ) ;
#255 = EDGE_CURVE ( 'NONE', #125, #55, #263, .T. ) ;
#256 = CIRCLE ( 'NONE', #300, 0.2499999999999970857 ) ;
#257 = APPROVAL_DATE_TIME ( #162, #132 ) ;
#258 = CALENDAR_DATE ( 2021, 3, 9 ) ;
#259 = CIRCLE ( 'NONE', #209, 0.2499999999999970857 ) ;
#260 = CIRCLE ( 'NONE', #196, 0.2499999999999963085 ) ;
#261 = CARTESIAN_POINT ( 'NONE',  ( 1.047444401652940007E-13, -3.673940397442059178E-15, 30.00000000000000000 ) ) ;
#262 = CARTESIAN_POINT ( 'NONE',  ( 5.550895796237963659E-16, 0.2499999999999963085, 0.1502151547568894852 ) ) ;
#263 = CIRCLE ( 'NONE', #287, 0.2500000000000000000 ) ;
#264 = DIRECTION ( 'NONE',  ( -3.491481338843133355E-15, 1.224646799147353207E-16, -1.000000000000000000 ) ) ;
#265 = CONICAL_SURFACE ( 'NONE', #205, 0.2499999999999963085, 1.029744258676649871 ) ;
#266 = LINE ( 'NONE', #7, #214 ) ;
#267 = ADVANCED_FACE ( 'NONE', ( #167 ), #265, .T. ) ;
#268 = DIRECTION ( 'NONE',  ( -3.491481338843133355E-15, 1.224646799147353207E-16, -1.000000000000000000 ) ) ;
#269 = CARTESIAN_POINT ( 'NONE',  ( 5.244734096451128746E-16, -1.839605084564490048E-17, 0.1502151547568894574 ) ) ;
#270 = EDGE_CURVE ( 'NONE', #55, #125, #176, .T. ) ;
#271 = CARTESIAN_POINT ( 'NONE',  ( 1.047628098672812071E-13, -0.1500000000000037137, 30.00000000000000000 ) ) ;
#272 = ORIENTED_EDGE ( 'NONE', *, *, #20, .T. ) ;
#273 = CARTESIAN_POINT ( 'NONE',  ( 1.047444401652940007E-13, -3.673940397442059178E-15, 30.00000000000000000 ) ) ;
#274 = CIRCLE ( 'NONE', #197, 0.2499999999999970857 ) ;
#275 = ORIENTED_EDGE ( 'NONE', *, *, #248, .F. ) ;
#276 = LINE ( 'NONE', #231, #309 ) ;
#277 = DIRECTION ( 'NONE',  ( 3.491481338843133355E-15, -1.224646799147353207E-16, 1.000000000000000000 ) ) ;
#278 = DIRECTION ( 'NONE',  ( -3.491481338843133355E-15, 1.224646799147353207E-16, -1.000000000000000000 ) ) ;
#279 = AXIS2_PLACEMENT_3D ( 'NONE', #178, #2, #90 ) ;
#280 = ADVANCED_FACE ( 'NONE', ( #26 ), #237, .T. ) ;
#281 = FACE_OUTER_BOUND ( 'NONE', #251, .T. ) ;
#282 = SHAPE_DEFINITION_REPRESENTATION ( #24, #232 ) ;
#283 = ORIENTED_EDGE ( 'NONE', *, *, #124, .F. ) ;
#284 = DIRECTION ( 'NONE',  ( -3.491481338843133355E-15, 1.224646799147353207E-16, -1.000000000000000000 ) ) ;
#285 = DIRECTION ( 'NONE',  ( -2.382254525458708792E-15, -0.7071067811865495711, -0.7071067811865455743 ) ) ;
#286 = APPROVAL_PERSON_ORGANIZATION ( #21, #324, #144 ) ;
#287 = AXIS2_PLACEMENT_3D ( 'NONE', #148, #5, #131 ) ;
#288 = CC_DESIGN_PERSON_AND_ORGANIZATION_ASSIGNMENT ( #108, #163, ( #254 ) ) ;
#289 = DIRECTION ( 'NONE',  ( -2.468850131082257455E-15, 0.7071067811865497932, -0.7071067811865453523 ) ) ;
#290 = APPROVAL_ROLE ( '' ) ;
#291 = VERTEX_POINT ( 'NONE', #223 ) ;
#292 = CONICAL_SURFACE ( 'NONE', #29, 0.1500000000000000222, 0.7853981633974512766 ) ;
#293 = EDGE_CURVE ( 'NONE', #111, #291, #259, .T. ) ;
#294 = DIRECTION ( 'NONE',  ( 0.0000000000000000000, 1.000000000000000000, 0.0000000000000000000 ) ) ;
#295 = PRODUCT_DEFINITION_FORMATION_WITH_SPECIFIED_SOURCE ( 'ANY', '', #254, .NOT_KNOWN. ) ;
#296 = CARTESIAN_POINT ( 'NONE',  ( 0.0000000000000000000, 0.0000000000000000000, 0.0000000000000000000 ) ) ;
#297 = DIRECTION ( 'NONE',  ( 4.275831445896958607E-31, 1.000000000000000000, 1.224646799147353207E-16 ) ) ;
#298 = CARTESIAN_POINT ( 'NONE',  ( 1.047444401652940007E-13, 0.1499999999999963307, 30.00000000000000000 ) ) ;
#299 = VECTOR ( 'NONE', #11, 1000.000000000000000 ) ;
#300 = AXIS2_PLACEMENT_3D ( 'NONE', #17, #227, #323 ) ;
#301 = CC_DESIGN_DATE_AND_TIME_ASSIGNMENT ( #333, #110, ( #118 ) ) ;
#302 = ORIENTED_EDGE ( 'NONE', *, *, #207, .F. ) ;
#303 = ORIENTED_EDGE ( 'NONE', *, *, #270, .T. ) ;
#304 = CARTESIAN_POINT ( 'NONE',  ( 6.270270620221279814E-14, -0.2499999999999978351, 5.999999999999999112 ) ) ;
#305 = EDGE_CURVE ( 'NONE', #226, #74, #312, .T. ) ;
#306 = ORIENTED_EDGE ( 'NONE', *, *, #139, .T. ) ;
#307 = CIRCLE ( 'NONE', #169, 0.2499999999999970857 ) ;
#308 = APPROVAL_STATUS ( 'not_yet_approved' ) ;
#309 = VECTOR ( 'NONE', #242, 1000.000000000000000 ) ;
#310 = DIRECTION ( 'NONE',  ( -3.851859888774528634E-31, -1.000000000000000000, -1.084202172485520458E-16 ) ) ;
#311 = DIRECTION ( 'NONE',  ( -3.491481338843133355E-15, 1.224646799147353207E-16, -1.000000000000000000 ) ) ;
#312 = LINE ( 'NONE', #222, #142 ) ;
#313 = ADVANCED_FACE ( 'NONE', ( #201 ), #78, .T. ) ;
#314 = ORIENTED_EDGE ( 'NONE', *, *, #255, .T. ) ;
#315 = CARTESIAN_POINT ( 'NONE',  ( 5.244734096451128746E-16, -1.839605084564490048E-17, 0.1502151547568894574 ) ) ;
#316 = LINE ( 'NONE', #156, #299 ) ;
#317 = CARTESIAN_POINT ( 'NONE',  ( 0.0000000000000000000, 0.0000000000000000000, 0.0000000000000000000 ) ) ;
#318 = CC_DESIGN_APPROVAL ( #324, ( #118 ) ) ;
#319 = LINE ( 'NONE', #322, #64 ) ;
#320 = CARTESIAN_POINT ( 'NONE',  ( 0.0000000000000000000, 0.0000000000000000000, 0.0000000000000000000 ) ) ;
#321 = DIRECTION ( 'NONE',  ( 3.851859888774528634E-31, 1.000000000000000000, 1.084202172485520458E-16 ) ) ;
#322 = CARTESIAN_POINT ( 'NONE',  ( 1.068957861474233302E-31, 0.2499999999999985290, 3.061616997868365145E-17 ) ) ;
#323 = DIRECTION ( 'NONE',  ( 0.0000000000000000000, 1.000000000000000000, 0.0000000000000000000 ) ) ;
#324 = APPROVAL ( #114, 'UNSPECIFIED' ) ;
#325 = DATE_AND_TIME ( #258, #152 ) ;
#326 = ORIENTED_EDGE ( 'NONE', *, *, #1, .F. ) ;
#327 = CC_DESIGN_SECURITY_CLASSIFICATION ( #119, ( #295 ) ) ;
#328 = ORIENTED_EDGE ( 'NONE', *, *, #293, .F. ) ;
#329 = CARTESIAN_POINT ( 'NONE',  ( 5.244734096451128746E-16, -1.839605084564490048E-17, 0.1502151547568894574 ) ) ;
#330 = PERSON_AND_ORGANIZATION ( #104, #25 ) ;
#331 = EDGE_CURVE ( 'NONE', #46, #140, #14, .T. ) ;
#332 = ORIENTED_EDGE ( 'NONE', *, *, #139, .F. ) ;
#333 = DATE_AND_TIME ( #233, #93 ) ;
#334 = ORIENTED_EDGE ( 'NONE', *, *, #89, .F. ) ;
#335 = AXIS2_PLACEMENT_3D ( 'NONE', #317, #99, #297 ) ;
#336 = CARTESIAN_POINT ( 'NONE',  ( 1.076729689133060662E-14, -0.2499999999999978351, 5.999999999999999112 ) ) ;
#337 = ORIENTED_EDGE ( 'NONE', *, *, #293, .T. ) ;
ENDSEC;
END-ISO-10303-21;
