ISO-10303-21;
HEADER;
FILE_DESCRIPTION (( 'STEP AP203' ),
    '1' );
FILE_NAME ('245.step',
    '2021-09-03T07:21:27',
    ( '' ),
    ( '' ),
    'SwSTEP 2.0',
    'SolidWorks 2019',
    '' );
FILE_SCHEMA (( 'CONFIG_CONTROL_DESIGN' ));
ENDSEC;

DATA;
#1 = DIRECTION ( 'NONE',  ( 1.000000000000000000, 0.0000000000000000000, 0.0000000000000000000 ) ) ;
#2 = APPLICATION_PROTOCOL_DEFINITION ( 'international standard', 'config_control_design', 1994, #237 ) ;
#3 = APPROVAL_STATUS ( 'not_yet_approved' ) ;
#4 = AXIS2_PLACEMENT_3D ( 'NONE', #281, #76, #334 ) ;
#5 = VERTEX_POINT ( 'NONE', #336 ) ;
#6 = DIRECTION ( 'NONE',  ( -3.491481338843133355E-15, 1.224646799147353207E-16, -1.000000000000000000 ) ) ;
#7 = FACE_OUTER_BOUND ( 'NONE', #242, .T. ) ;
#8 = ORIENTED_EDGE ( 'NONE', *, *, #212, .T. ) ;
#9 = CARTESIAN_POINT ( 'NONE',  ( 1.043952920314096810E-13, -3.661693929450586610E-15, 29.89999999999999858 ) ) ;
#10 = AXIS2_PLACEMENT_3D ( 'NONE', #23, #243, #1 ) ;
#11 = CARTESIAN_POINT ( 'NONE',  ( 1.043952920314096810E-13, 0.2249999999999963418, 29.89999999999999858 ) ) ;
#12 = EDGE_CURVE ( 'NONE', #87, #333, #89, .T. ) ;
#13 = DIRECTION ( 'NONE',  ( -3.491481338843133355E-15, 1.224646799147353207E-16, -1.000000000000000000 ) ) ;
#14 = CONICAL_SURFACE ( 'NONE', #4, 0.1250000000000000000, 0.7853981633974512766 ) ;
#15 = LOCAL_TIME ( 9, 21, 27.00000000000000000, #33 ) ;
#16 = ADVANCED_FACE ( 'NONE', ( #110 ), #73, .F. ) ;
#17 = CIRCLE ( 'NONE', #288, 0.2249999999999970635 ) ;
#18 = CARTESIAN_POINT ( 'NONE',  ( 1.073801160385048217E-14, -0.2249999999999977851, 5.999999999999999112 ) ) ;
#19 = DATE_AND_TIME ( #127, #251 ) ;
#20 = LINE ( 'NONE', #230, #313 ) ;
#21 = CC_DESIGN_DATE_AND_TIME_ASSIGNMENT ( #283, #245, ( #200 ) ) ;
#22 = CONICAL_SURFACE ( 'NONE', #210, 0.2249999999999963696, 1.029744258676649649 ) ;
#23 = CARTESIAN_POINT ( 'NONE',  ( 0.0000000000000000000, 0.0000000000000000000, 0.0000000000000000000 ) ) ;
#24 = PRODUCT_DEFINITION ( 'UNKNOWN', '', #278, #234 ) ;
#25 = DIRECTION ( 'NONE',  ( -4.275831445896958607E-31, -1.000000000000000000, -1.224646799147353207E-16 ) ) ;
#26 = PERSON_AND_ORGANIZATION ( #238, #182 ) ;
#27 = ORIENTED_EDGE ( 'NONE', *, *, #270, .T. ) ;
#28 = DIRECTION ( 'NONE',  ( 0.0000000000000000000, 1.000000000000000000, 0.0000000000000000000 ) ) ;
#29 = AXIS2_PLACEMENT_3D ( 'NONE', #135, #331, #184 ) ;
#30 = EDGE_CURVE ( 'NONE', #222, #94, #60, .T. ) ;
#31 = CARTESIAN_POINT ( 'NONE',  ( 1.047444401652940007E-13, 9.373498641636057535E-34, 30.00000000000000000 ) ) ;
#32 = DIRECTION ( 'NONE',  ( -3.491481338843133355E-15, 1.224646799147353207E-16, -1.000000000000000000 ) ) ;
#33 = COORDINATED_UNIVERSAL_TIME_OFFSET ( 1, 0, .AHEAD. ) ;
#34 = VECTOR ( 'NONE', #106, 1000.000000000000114 ) ;
#35 = AXIS2_PLACEMENT_3D ( 'NONE', #105, #215, #162 ) ;
#36 = DIRECTION ( 'NONE',  ( -3.491481338843133355E-15, 1.224646799147353207E-16, -1.000000000000000000 ) ) ;
#37 = ORIENTED_EDGE ( 'NONE', *, *, #212, .F. ) ;
#38 = DIRECTION ( 'NONE',  ( 4.279844320860593210E-31, 1.000000000000000000, 1.204669080539468819E-16 ) ) ;
#39 = DIRECTION ( 'NONE',  ( 4.275831445896958607E-31, 1.000000000000000000, 1.224646799147353207E-16 ) ) ;
#40 = EDGE_CURVE ( 'NONE', #267, #333, #61, .T. ) ;
#41 = AXIS2_PLACEMENT_3D ( 'NONE', #257, #36, #68 ) ;
#42 = ORIENTED_EDGE ( 'NONE', *, *, #152, .F. ) ;
#43 = VERTEX_POINT ( 'NONE', #47 ) ;
#44 = FACE_OUTER_BOUND ( 'NONE', #276, .T. ) ;
#45 = PRODUCT_DEFINITION_SHAPE ( 'NONE', 'NONE',  #24 ) ;
#46 = ORIENTED_EDGE ( 'NONE', *, *, #51, .F. ) ;
#47 = CARTESIAN_POINT ( 'NONE',  ( 2.094888803305879698E-14, 0.2249999999999963418, 5.999999999999999112 ) ) ;
#48 = CYLINDRICAL_SURFACE ( 'NONE', #191, 0.2249999999999967026 ) ;
#49 = CARTESIAN_POINT ( 'NONE',  ( 1.047444401652940007E-13, -3.673940397442059178E-15, 30.00000000000000000 ) ) ;
#50 = ORIENTED_EDGE ( 'NONE', *, *, #147, .T. ) ;
#51 = EDGE_CURVE ( 'NONE', #43, #267, #136, .T. ) ;
#52 = ORIENTED_EDGE ( 'NONE', *, *, #109, .F. ) ;
#53 = VECTOR ( 'NONE', #130, 1000.000000000000000 ) ;
#54 = CLOSED_SHELL ( 'NONE', ( #137, #260, #86, #223, #307 ) ) ;
#55 = CARTESIAN_POINT ( 'NONE',  ( 4.995806216614161179E-16, 0.2249999999999963418, 0.1351936392812003729 ) ) ;
#56 = DIRECTION ( 'NONE',  ( -4.279844320860593210E-31, -1.000000000000000000, -1.204669080539468819E-16 ) ) ;
#57 = PERSON_AND_ORGANIZATION_ROLE ( 'classification_officer' ) ;
#58 =( NAMED_UNIT ( * ) SI_UNIT ( $, .STERADIAN. ) SOLID_ANGLE_UNIT ( ) );
#59 = DATE_AND_TIME ( #226, #71 ) ;
#60 = LINE ( 'NONE', #177, #34 ) ;
#61 = CIRCLE ( 'NONE', #35, 0.2249999999999963696 ) ;
#62 = CONICAL_SURFACE ( 'NONE', #41, 0.1250000000000000000, 0.7853981633974512766 ) ;
#63 = MANIFOLD_SOLID_BREP ( 'Corps-Déplacer/Copier1[1]', #150 ) ;
#64 = ORIENTED_EDGE ( 'NONE', *, *, #51, .T. ) ;
#65 = VECTOR ( 'NONE', #248, 1000.000000000000000 ) ;
#66 = PERSON_AND_ORGANIZATION_ROLE ( 'creator' ) ;
#67 = ORIENTED_EDGE ( 'NONE', *, *, #176, .T. ) ;
#68 = DIRECTION ( 'NONE',  ( 0.0000000000000000000, 1.000000000000000000, 0.0000000000000000000 ) ) ;
#69 = PERSON_AND_ORGANIZATION ( #238, #182 ) ;
#70 = DIRECTION ( 'NONE',  ( -3.491481338843133355E-15, 1.224646799147353207E-16, -1.000000000000000000 ) ) ;
#71 = LOCAL_TIME ( 9, 21, 27.00000000000000000, #125 ) ;
#72 = PERSON_AND_ORGANIZATION ( #238, #182 ) ;
#73 = PLANE ( 'NONE',  #328 ) ;
#74 = DIRECTION ( 'NONE',  ( 3.491481338843133355E-15, -1.224646799147353207E-16, 1.000000000000000000 ) ) ;
#75 = FACE_OUTER_BOUND ( 'NONE', #293, .T. ) ;
#76 = DIRECTION ( 'NONE',  ( -3.491481338843133355E-15, 1.224646799147353207E-16, -1.000000000000000000 ) ) ;
#77 = DIRECTION ( 'NONE',  ( 1.903218546456022717E-15, 0.8571673007021097801, 0.5150380749100585964 ) ) ;
#78 = DIRECTION ( 'NONE',  ( 4.275831445896958607E-31, 1.000000000000000000, 1.224646799147353207E-16 ) ) ;
#79 = EDGE_LOOP ( 'NONE', ( #205, #172, #247, #320 ) ) ;
#80 = CC_DESIGN_DATE_AND_TIME_ASSIGNMENT ( #59, #227, ( #24 ) ) ;
#81 = DIRECTION ( 'NONE',  ( -3.491481338843133355E-15, 1.224646799147353207E-16, -1.000000000000000000 ) ) ;
#82 = PLANE ( 'NONE',  #117 ) ;
#83 = EDGE_LOOP ( 'NONE', ( #337, #224 ) ) ;
#84 = ORIENTED_EDGE ( 'NONE', *, *, #30, .T. ) ;
#85 = CIRCLE ( 'NONE', #189, 0.2250000000000000056 ) ;
#86 = ADVANCED_FACE ( 'NONE', ( #195 ), #312, .T. ) ;
#87 = VERTEX_POINT ( 'NONE', #217 ) ;
#88 = MECHANICAL_CONTEXT ( 'NONE', #310, 'mechanical' ) ;
#89 = LINE ( 'NONE', #198, #65 ) ;
#90 = CARTESIAN_POINT ( 'NONE',  ( 2.755455298081495166E-17, -0.2249999999999967026, -2.755455298081513655E-17 ) ) ;
#91 = AXIS2_PLACEMENT_3D ( 'NONE', #9, #156, #258 ) ;
#92 = SHAPE_DEFINITION_REPRESENTATION ( #45, #246 ) ;
#93 = CC_DESIGN_PERSON_AND_ORGANIZATION_ASSIGNMENT ( #72, #142, ( #278 ) ) ;
#94 = VERTEX_POINT ( 'NONE', #309 ) ;
#95 = DIRECTION ( 'NONE',  ( 4.275831445896958607E-31, 1.000000000000000000, 1.224646799147353207E-16 ) ) ;
#96 = CARTESIAN_POINT ( 'NONE',  ( 4.720260686806010646E-16, -1.655644576108038917E-17, 0.1351936392812003451 ) ) ;
#97 = ORIENTED_EDGE ( 'NONE', *, *, #176, .F. ) ;
#98 = VERTEX_POINT ( 'NONE', #18 ) ;
#99 = CARTESIAN_POINT ( 'NONE',  ( 4.995806216614161179E-16, 0.2249999999999963418, 0.1351936392812003729 ) ) ;
#100 = EDGE_CURVE ( 'NONE', #87, #267, #332, .T. ) ;
#101 = PERSON_AND_ORGANIZATION ( #238, #182 ) ;
#102 = EDGE_LOOP ( 'NONE', ( #314, #321 ) ) ;
#103 = CC_DESIGN_APPROVAL ( #209, ( #200 ) ) ;
#104 = CARTESIAN_POINT ( 'NONE',  ( 2.755455298081517353E-17, -0.2249999999999985345, -2.755455298081535841E-17 ) ) ;
#105 = CARTESIAN_POINT ( 'NONE',  ( 4.720260686806010646E-16, -1.655644576108038917E-17, 0.1351936392812003451 ) ) ;
#106 = DIRECTION ( 'NONE',  ( -2.382254525458708792E-15, -0.7071067811865495711, -0.7071067811865455743 ) ) ;
#107 = CYLINDRICAL_SURFACE ( 'NONE', #211, 0.2249999999999985345 ) ;
#108 = CIRCLE ( 'NONE', #91, 0.2250000000000000056 ) ;
#109 = EDGE_CURVE ( 'NONE', #122, #5, #144, .T. ) ;
#110 = FACE_OUTER_BOUND ( 'NONE', #102, .T. ) ;
#111 = CARTESIAN_POINT ( 'NONE',  ( 4.720260686806010646E-16, -1.655644576108038917E-17, 0.1351936392812003451 ) ) ;
#112 = ORIENTED_EDGE ( 'NONE', *, *, #100, .T. ) ;
#113 = CC_DESIGN_APPROVAL ( #322, ( #278 ) ) ;
#114 = ORIENTED_EDGE ( 'NONE', *, *, #116, .T. ) ;
#115 = SECURITY_CLASSIFICATION_LEVEL ( 'unclassified' ) ;
#116 = EDGE_CURVE ( 'NONE', #302, #94, #85, .T. ) ;
#117 = AXIS2_PLACEMENT_3D ( 'NONE', #287, #269, #25 ) ;
#118 = APPROVAL_DATE_TIME ( #202, #322 ) ;
#119 = PERSON_AND_ORGANIZATION_ROLE ( 'creator' ) ;
#120 = DIRECTION ( 'NONE',  ( -2.468850131082257455E-15, 0.7071067811865497932, -0.7071067811865453523 ) ) ;
#121 = DIRECTION ( 'NONE',  ( -3.491481338843133355E-15, 1.224646799147353207E-16, -1.000000000000000000 ) ) ;
#122 = VERTEX_POINT ( 'NONE', #161 ) ;
#123 = PRODUCT_RELATED_PRODUCT_CATEGORY ( 'detail', '', ( #208 ) ) ;
#124 =( LENGTH_UNIT ( ) NAMED_UNIT ( * ) SI_UNIT ( .MILLI., .METRE. ) );
#125 = COORDINATED_UNIVERSAL_TIME_OFFSET ( 1, 0, .AHEAD. ) ;
#126 = FACE_OUTER_BOUND ( 'NONE', #271, .T. ) ;
#127 = CALENDAR_DATE ( 2021, 3, 9 ) ;
#128 = CC_DESIGN_PERSON_AND_ORGANIZATION_ASSIGNMENT ( #69, #66, ( #24 ) ) ;
#129 = ORIENTED_EDGE ( 'NONE', *, *, #116, .F. ) ;
#130 = DIRECTION ( 'NONE',  ( -3.491481338843133355E-15, 1.224646799147353207E-16, -1.000000000000000000 ) ) ;
#131 = CARTESIAN_POINT ( 'NONE',  ( 9.620620753268016297E-32, 0.2249999999999967026, 2.755455298081504718E-17 ) ) ;
#132 = FACE_OUTER_BOUND ( 'NONE', #83, .T. ) ;
#133 = ORIENTED_EDGE ( 'NONE', *, *, #298, .T. ) ;
#134 = VECTOR ( 'NONE', #77, 999.9999999999998863 ) ;
#135 = CARTESIAN_POINT ( 'NONE',  ( 2.094888803305879698E-14, -7.347880794884118750E-16, 5.999999999999999112 ) ) ;
#136 = LINE ( 'NONE', #131, #236 ) ;
#137 = ADVANCED_FACE ( 'NONE', ( #75 ), #233, .T. ) ;
#138 = PLANE ( 'NONE',  #261 ) ;
#139 = DIRECTION ( 'NONE',  ( 0.0000000000000000000, 1.000000000000000000, 0.0000000000000000000 ) ) ;
#140 = ORIENTED_EDGE ( 'NONE', *, *, #253, .F. ) ;
#141 = DIRECTION ( 'NONE',  ( 3.491481338843133355E-15, -1.224646799147353207E-16, 1.000000000000000000 ) ) ;
#142 = PERSON_AND_ORGANIZATION_ROLE ( 'design_supplier' ) ;
#143 = APPROVAL ( #165, 'UNSPECIFIED' ) ;
#144 = CIRCLE ( 'NONE', #178, 0.2249999999999970635 ) ;
#145 = EDGE_LOOP ( 'NONE', ( #291, #228, #27 ) ) ;
#146 = PERSON_AND_ORGANIZATION ( #238, #182 ) ;
#147 = EDGE_CURVE ( 'NONE', #94, #5, #330, .T. ) ;
#148 = COORDINATED_UNIVERSAL_TIME_OFFSET ( 1, 0, .AHEAD. ) ;
#149 =( NAMED_UNIT ( * ) PLANE_ANGLE_UNIT ( ) SI_UNIT ( $, .RADIAN. ) );
#150 = CLOSED_SHELL ( 'NONE', ( #256, #311, #160, #199, #188, #16 ) ) ;
#151 = DIRECTION ( 'NONE',  ( 0.0000000000000000000, 1.000000000000000000, 0.0000000000000000000 ) ) ;
#152 = EDGE_CURVE ( 'NONE', #302, #122, #20, .T. ) ;
#153 = CARTESIAN_POINT ( 'NONE',  ( 0.0000000000000000000, 0.0000000000000000000, 0.0000000000000000000 ) ) ;
#154 = ORIENTED_EDGE ( 'NONE', *, *, #201, .T. ) ;
#155 =( GEOMETRIC_REPRESENTATION_CONTEXT ( 3 ) GLOBAL_UNCERTAINTY_ASSIGNED_CONTEXT ( ( #280 ) ) GLOBAL_UNIT_ASSIGNED_CONTEXT ( ( #124, #149, #58 ) ) REPRESENTATION_CONTEXT ( 'NONE', 'WORKASPACE' ) );
#156 = DIRECTION ( 'NONE',  ( -3.491481338843133355E-15, 1.224646799147353207E-16, -1.000000000000000000 ) ) ;
#157 = CARTESIAN_POINT ( 'NONE',  ( 1.043952920314096810E-13, -3.661693929450586610E-15, 29.89999999999999858 ) ) ;
#158 = CARTESIAN_POINT ( 'NONE',  ( 1.045912974173369151E-13, -0.1250000000000036915, 30.00000000000000000 ) ) ;
#159 = ORIENTED_EDGE ( 'NONE', *, *, #40, .F. ) ;
#160 = ADVANCED_FACE ( 'NONE', ( #132 ), #138, .F. ) ;
#161 = CARTESIAN_POINT ( 'NONE',  ( 2.094888803305879698E-14, 0.2249999999999963418, 5.999999999999999112 ) ) ;
#162 = DIRECTION ( 'NONE',  ( 4.279844320860593210E-31, 1.000000000000000000, 1.204669080539468819E-16 ) ) ;
#163 = DIRECTION ( 'NONE',  ( -3.491481338843133355E-15, 1.224646799147353207E-16, -1.000000000000000000 ) ) ;
#164 = DIRECTION ( 'NONE',  ( 0.0000000000000000000, 1.000000000000000000, 0.0000000000000000000 ) ) ;
#165 = APPROVAL_STATUS ( 'not_yet_approved' ) ;
#166 = CALENDAR_DATE ( 2021, 3, 9 ) ;
#167 = DIRECTION ( 'NONE',  ( -3.491481338843133355E-15, 1.224646799147353207E-16, -1.000000000000000000 ) ) ;
#168 = ORIENTED_EDGE ( 'NONE', *, *, #40, .T. ) ;
#169 = LOCAL_TIME ( 9, 21, 27.00000000000000000, #148 ) ;
#170 = LINE ( 'NONE', #90, #235 ) ;
#171 = APPROVAL_STATUS ( 'not_yet_approved' ) ;
#172 = ORIENTED_EDGE ( 'NONE', *, *, #244, .T. ) ;
#173 = VERTEX_POINT ( 'NONE', #193 ) ;
#174 = EDGE_CURVE ( 'NONE', #98, #43, #250, .T. ) ;
#175 = LINE ( 'NONE', #297, #268 ) ;
#176 = EDGE_CURVE ( 'NONE', #43, #98, #17, .T. ) ;
#177 = CARTESIAN_POINT ( 'NONE',  ( 1.047597482502833331E-13, -0.1250000000000036915, 30.00000000000000000 ) ) ;
#178 = AXIS2_PLACEMENT_3D ( 'NONE', #192, #81, #139 ) ;
#179 = APPROVAL_PERSON_ORGANIZATION ( #101, #322, #273 ) ;
#180 = APPLICATION_PROTOCOL_DEFINITION ( 'international standard', 'config_control_design', 1994, #310 ) ;
#181 = DIRECTION ( 'NONE',  ( -3.491481338843133355E-15, 1.224646799147353207E-16, -1.000000000000000000 ) ) ;
#182 = ORGANIZATION ( 'UNSPECIFIED', 'UNSPECIFIED', '' ) ;
#183 = DIRECTION ( 'NONE',  ( 0.0000000000000000000, 1.000000000000000000, 0.0000000000000000000 ) ) ;
#184 = DIRECTION ( 'NONE',  ( 0.0000000000000000000, 1.000000000000000000, 0.0000000000000000000 ) ) ;
#185 = ORIENTED_EDGE ( 'NONE', *, *, #174, .F. ) ;
#186 = DIRECTION ( 'NONE',  ( 0.0000000000000000000, 1.000000000000000000, 0.0000000000000000000 ) ) ;
#187 = COORDINATED_UNIVERSAL_TIME_OFFSET ( 1, 0, .AHEAD. ) ;
#188 = ADVANCED_FACE ( 'NONE', ( #190 ), #14, .T. ) ;
#189 = AXIS2_PLACEMENT_3D ( 'NONE', #157, #13, #186 ) ;
#190 = FACE_OUTER_BOUND ( 'NONE', #79, .T. ) ;
#191 = AXIS2_PLACEMENT_3D ( 'NONE', #327, #308, #277 ) ;
#192 = CARTESIAN_POINT ( 'NONE',  ( 2.094888803305879698E-14, -7.347880794884118750E-16, 5.999999999999999112 ) ) ;
#193 = CARTESIAN_POINT ( 'NONE',  ( 1.047444401652940007E-13, 0.1249999999999963224, 30.00000000000000000 ) ) ;
#194 = PERSON_AND_ORGANIZATION_ROLE ( 'design_owner' ) ;
#195 = FACE_OUTER_BOUND ( 'NONE', #145, .T. ) ;
#196 = AXIS2_PLACEMENT_3D ( 'NONE', #49, #167, #183 ) ;
#197 = CARTESIAN_POINT ( 'NONE',  ( 1.047444401652940007E-13, -3.673940397442059178E-15, 30.00000000000000000 ) ) ;
#198 = CARTESIAN_POINT ( 'NONE',  ( 4.720260686806009660E-16, -0.2249999999999963973, 0.1351936392812003174 ) ) ;
#199 = ADVANCED_FACE ( 'NONE', ( #44 ), #107, .T. ) ;
#200 = SECURITY_CLASSIFICATION ( '', '', #115 ) ;
#201 = EDGE_CURVE ( 'NONE', #173, #222, #326, .T. ) ;
#202 = DATE_AND_TIME ( #317, #15 ) ;
#203 = ORIENTED_EDGE ( 'NONE', *, *, #270, .F. ) ;
#204 = CARTESIAN_POINT ( 'NONE',  ( 4.720260686806009660E-16, -0.2249999999999963973, 0.1351936392812003174 ) ) ;
#205 = ORIENTED_EDGE ( 'NONE', *, *, #30, .F. ) ;
#206 = FACE_OUTER_BOUND ( 'NONE', #218, .T. ) ;
#207 = CC_DESIGN_PERSON_AND_ORGANIZATION_ASSIGNMENT ( #146, #194, ( #208 ) ) ;
#208 = PRODUCT ( '245', '245', '', ( #88 ) ) ;
#209 = APPROVAL ( #171, 'UNSPECIFIED' ) ;
#210 = AXIS2_PLACEMENT_3D ( 'NONE', #96, #229, #56 ) ;
#211 = AXIS2_PLACEMENT_3D ( 'NONE', #216, #70, #78 ) ;
#212 = EDGE_CURVE ( 'NONE', #98, #333, #170, .T. ) ;
#213 = APPROVAL_ROLE ( '' ) ;
#214 = DIRECTION ( 'NONE',  ( -3.491481338843133355E-15, 1.224646799147353207E-16, -1.000000000000000000 ) ) ;
#215 = DIRECTION ( 'NONE',  ( -3.491481338843133355E-15, 1.224646799147353207E-16, -1.000000000000000000 ) ) ;
#216 = CARTESIAN_POINT ( 'NONE',  ( 0.0000000000000000000, 0.0000000000000000000, 0.0000000000000000000 ) ) ;
#217 = CARTESIAN_POINT ( 'NONE',  ( 0.0000000000000000000, 0.0000000000000000000, 0.0000000000000000000 ) ) ;
#218 = EDGE_LOOP ( 'NONE', ( #114, #50, #52, #42 ) ) ;
#219 = CC_DESIGN_PERSON_AND_ORGANIZATION_ASSIGNMENT ( #296, #119, ( #278 ) ) ;
#220 = AXIS2_PLACEMENT_3D ( 'NONE', #324, #264, #262 ) ;
#221 = AXIS2_PLACEMENT_3D ( 'NONE', #231, #181, #38 ) ;
#222 = VERTEX_POINT ( 'NONE', #158 ) ;
#223 = ADVANCED_FACE ( 'NONE', ( #305 ), #48, .T. ) ;
#224 = ORIENTED_EDGE ( 'NONE', *, *, #315, .T. ) ;
#225 = APPROVAL_PERSON_ORGANIZATION ( #329, #143, #213 ) ;
#226 = CALENDAR_DATE ( 2021, 3, 9 ) ;
#227 = DATE_TIME_ROLE ( 'creation_date' ) ;
#228 = ORIENTED_EDGE ( 'NONE', *, *, #12, .T. ) ;
#229 = DIRECTION ( 'NONE',  ( 3.491481338843133355E-15, -1.224646799147353207E-16, 1.000000000000000000 ) ) ;
#230 = CARTESIAN_POINT ( 'NONE',  ( 9.620620753268094025E-32, 0.2249999999999985345, 2.755455298081526905E-17 ) ) ;
#231 = CARTESIAN_POINT ( 'NONE',  ( 4.720260686806010646E-16, -1.655644576108038917E-17, 0.1351936392812003451 ) ) ;
#232 = ORIENTED_EDGE ( 'NONE', *, *, #152, .T. ) ;
#233 = CYLINDRICAL_SURFACE ( 'NONE', #220, 0.2249999999999967026 ) ;
#234 = DESIGN_CONTEXT ( 'detailed design', #237, 'design' ) ;
#235 = VECTOR ( 'NONE', #335, 1000.000000000000000 ) ;
#236 = VECTOR ( 'NONE', #240, 1000.000000000000000 ) ;
#237 = APPLICATION_CONTEXT ( 'configuration controlled 3d designs of mechanical parts and assemblies' ) ;
#238 = PERSON ( 'UNSPECIFIED', 'UNSPECIFIED', 'UNSPECIFIED', ('UNSPECIFIED'), ('UNSPECIFIED'), ('UNSPECIFIED') ) ;
#239 = DIRECTION ( 'NONE',  ( -4.279844320860593210E-31, -1.000000000000000000, -1.204669080539468819E-16 ) ) ;
#240 = DIRECTION ( 'NONE',  ( -3.491481338843133355E-15, 1.224646799147353207E-16, -1.000000000000000000 ) ) ;
#241 = CIRCLE ( 'NONE', #316, 0.1250000000000000000 ) ;
#242 = EDGE_LOOP ( 'NONE', ( #294, #112, #168 ) ) ;
#243 = DIRECTION ( 'NONE',  ( 0.0000000000000000000, 0.0000000000000000000, 1.000000000000000000 ) ) ;
#244 = EDGE_CURVE ( 'NONE', #222, #173, #241, .T. ) ;
#245 = DATE_TIME_ROLE ( 'classification_date' ) ;
#246 = ADVANCED_BREP_SHAPE_REPRESENTATION ( '245', ( #63, #282, #10 ), #155 ) ;
#247 = ORIENTED_EDGE ( 'NONE', *, *, #253, .T. ) ;
#248 = DIRECTION ( 'NONE',  ( 1.798245827342160317E-15, -0.8571673007021098911, 0.5150380749100582634 ) ) ;
#249 = DIRECTION ( 'NONE',  ( -3.491481338843133355E-15, 1.224646799147353207E-16, -1.000000000000000000 ) ) ;
#250 = CIRCLE ( 'NONE', #29, 0.2249999999999970635 ) ;
#251 = LOCAL_TIME ( 9, 21, 27.00000000000000000, #187 ) ;
#252 = DATE_AND_TIME ( #254, #265 ) ;
#253 = EDGE_CURVE ( 'NONE', #173, #302, #175, .T. ) ;
#254 = CALENDAR_DATE ( 2021, 3, 9 ) ;
#255 = CYLINDRICAL_SURFACE ( 'NONE', #274, 0.2249999999999985345 ) ;
#256 = ADVANCED_FACE ( 'NONE', ( #318 ), #62, .T. ) ;
#257 = CARTESIAN_POINT ( 'NONE',  ( 1.047444401652940007E-13, -3.673940397442059178E-15, 30.00000000000000000 ) ) ;
#258 = DIRECTION ( 'NONE',  ( 0.0000000000000000000, 1.000000000000000000, 0.0000000000000000000 ) ) ;
#259 = COORDINATED_UNIVERSAL_TIME_OFFSET ( 1, 0, .AHEAD. ) ;
#260 = ADVANCED_FACE ( 'NONE', ( #7 ), #22, .T. ) ;
#261 = AXIS2_PLACEMENT_3D ( 'NONE', #286, #74, #306 ) ;
#262 = DIRECTION ( 'NONE',  ( 4.275831445896958607E-31, 1.000000000000000000, 1.224646799147353454E-16 ) ) ;
#263 = AXIS2_PLACEMENT_3D ( 'NONE', #272, #6, #151 ) ;
#264 = DIRECTION ( 'NONE',  ( -3.491481338843133355E-15, 1.224646799147353207E-16, -1.000000000000000000 ) ) ;
#265 = LOCAL_TIME ( 9, 21, 27.00000000000000000, #259 ) ;
#266 = EDGE_LOOP ( 'NONE', ( #154, #84, #129, #140 ) ) ;
#267 = VERTEX_POINT ( 'NONE', #99 ) ;
#268 = VECTOR ( 'NONE', #120, 1000.000000000000114 ) ;
#269 = DIRECTION ( 'NONE',  ( 3.491481338843133355E-15, -1.224646799147353207E-16, 1.000000000000000000 ) ) ;
#270 = EDGE_CURVE ( 'NONE', #333, #267, #295, .T. ) ;
#271 = EDGE_LOOP ( 'NONE', ( #97, #185 ) ) ;
#272 = CARTESIAN_POINT ( 'NONE',  ( 2.094888803305879698E-14, -7.347880794884118750E-16, 5.999999999999999112 ) ) ;
#273 = APPROVAL_ROLE ( '' ) ;
#274 = AXIS2_PLACEMENT_3D ( 'NONE', #153, #121, #39 ) ;
#275 = AXIS2_PLACEMENT_3D ( 'NONE', #111, #141, #239 ) ;
#276 = EDGE_LOOP ( 'NONE', ( #301, #133, #232, #300 ) ) ;
#277 = DIRECTION ( 'NONE',  ( 4.275831445896958607E-31, 1.000000000000000000, 1.224646799147353454E-16 ) ) ;
#278 = PRODUCT_DEFINITION_FORMATION_WITH_SPECIFIED_SOURCE ( 'ANY', '', #208, .NOT_KNOWN. ) ;
#279 = APPROVAL_DATE_TIME ( #252, #209 ) ;
#280 = UNCERTAINTY_MEASURE_WITH_UNIT (LENGTH_MEASURE( 1.000000000000000082E-05 ), #124, 'distance_accuracy_value', 'NONE');
#281 = CARTESIAN_POINT ( 'NONE',  ( 1.047444401652940007E-13, -3.673940397442059178E-15, 30.00000000000000000 ) ) ;
#282 = MANIFOLD_SOLID_BREP ( 'Corps-Déplacer/Copier1[2]', #54 ) ;
#283 = DATE_AND_TIME ( #166, #169 ) ;
#284 = APPROVAL_PERSON_ORGANIZATION ( #26, #209, #292 ) ;
#285 = PERSON_AND_ORGANIZATION ( #238, #182 ) ;
#286 = CARTESIAN_POINT ( 'NONE',  ( 2.094888803305879382E-14, -4.625929269271541962E-14, 5.999999999999998224 ) ) ;
#287 = CARTESIAN_POINT ( 'NONE',  ( 2.094888803305879382E-14, -4.625929269271541962E-14, 5.999999999999998224 ) ) ;
#288 = AXIS2_PLACEMENT_3D ( 'NONE', #325, #214, #164 ) ;
#289 = CC_DESIGN_APPROVAL ( #143, ( #24 ) ) ;
#290 = ORIENTED_EDGE ( 'NONE', *, *, #174, .T. ) ;
#291 = ORIENTED_EDGE ( 'NONE', *, *, #100, .F. ) ;
#292 = APPROVAL_ROLE ( '' ) ;
#293 = EDGE_LOOP ( 'NONE', ( #67, #8, #159, #46 ) ) ;
#294 = ORIENTED_EDGE ( 'NONE', *, *, #12, .F. ) ;
#295 = CIRCLE ( 'NONE', #221, 0.2249999999999963696 ) ;
#296 = PERSON_AND_ORGANIZATION ( #238, #182 ) ;
#297 = CARTESIAN_POINT ( 'NONE',  ( 1.047444401652940007E-13, 0.1249999999999963224, 30.00000000000000000 ) ) ;
#298 = EDGE_CURVE ( 'NONE', #94, #302, #108, .T. ) ;
#299 = CC_DESIGN_SECURITY_CLASSIFICATION ( #200, ( #278 ) ) ;
#300 = ORIENTED_EDGE ( 'NONE', *, *, #315, .F. ) ;
#301 = ORIENTED_EDGE ( 'NONE', *, *, #147, .F. ) ;
#302 = VERTEX_POINT ( 'NONE', #11 ) ;
#303 = CIRCLE ( 'NONE', #263, 0.2249999999999970635 ) ;
#304 = CC_DESIGN_PERSON_AND_ORGANIZATION_ASSIGNMENT ( #285, #57, ( #200 ) ) ;
#305 = FACE_OUTER_BOUND ( 'NONE', #323, .T. ) ;
#306 = DIRECTION ( 'NONE',  ( -4.275831445896958607E-31, -1.000000000000000000, -1.224646799147353207E-16 ) ) ;
#307 = ADVANCED_FACE ( 'NONE', ( #126 ), #82, .T. ) ;
#308 = DIRECTION ( 'NONE',  ( -3.491481338843133355E-15, 1.224646799147353207E-16, -1.000000000000000000 ) ) ;
#309 = CARTESIAN_POINT ( 'NONE',  ( 6.269964458521452019E-14, -0.2250000000000036693, 29.89999999999999858 ) ) ;
#310 = APPLICATION_CONTEXT ( 'configuration controlled 3d designs of mechanical parts and assemblies' ) ;
#311 = ADVANCED_FACE ( 'NONE', ( #206 ), #255, .T. ) ;
#312 = CONICAL_SURFACE ( 'NONE', #275, 0.2249999999999963696, 1.029744258676649649 ) ;
#313 = VECTOR ( 'NONE', #163, 1000.000000000000000 ) ;
#314 = ORIENTED_EDGE ( 'NONE', *, *, #201, .F. ) ;
#315 = EDGE_CURVE ( 'NONE', #5, #122, #303, .T. ) ;
#316 = AXIS2_PLACEMENT_3D ( 'NONE', #197, #249, #28 ) ;
#317 = CALENDAR_DATE ( 2021, 3, 9 ) ;
#318 = FACE_OUTER_BOUND ( 'NONE', #266, .T. ) ;
#319 = APPROVAL_DATE_TIME ( #19, #143 ) ;
#320 = ORIENTED_EDGE ( 'NONE', *, *, #298, .F. ) ;
#321 = ORIENTED_EDGE ( 'NONE', *, *, #244, .F. ) ;
#322 = APPROVAL ( #3, 'UNSPECIFIED' ) ;
#323 = EDGE_LOOP ( 'NONE', ( #37, #290, #64, #203 ) ) ;
#324 = CARTESIAN_POINT ( 'NONE',  ( 0.0000000000000000000, 0.0000000000000000000, 0.0000000000000000000 ) ) ;
#325 = CARTESIAN_POINT ( 'NONE',  ( 2.094888803305879698E-14, -7.347880794884118750E-16, 5.999999999999999112 ) ) ;
#326 = CIRCLE ( 'NONE', #196, 0.1250000000000000000 ) ;
#327 = CARTESIAN_POINT ( 'NONE',  ( 0.0000000000000000000, 0.0000000000000000000, 0.0000000000000000000 ) ) ;
#328 = AXIS2_PLACEMENT_3D ( 'NONE', #31, #32, #95 ) ;
#329 = PERSON_AND_ORGANIZATION ( #238, #182 ) ;
#330 = LINE ( 'NONE', #104, #53 ) ;
#331 = DIRECTION ( 'NONE',  ( -3.491481338843133355E-15, 1.224646799147353207E-16, -1.000000000000000000 ) ) ;
#332 = LINE ( 'NONE', #55, #134 ) ;
#333 = VERTEX_POINT ( 'NONE', #204 ) ;
#334 = DIRECTION ( 'NONE',  ( 0.0000000000000000000, 1.000000000000000000, 0.0000000000000000000 ) ) ;
#335 = DIRECTION ( 'NONE',  ( -3.491481338843133355E-15, 1.224646799147353207E-16, -1.000000000000000000 ) ) ;
#336 = CARTESIAN_POINT ( 'NONE',  ( 6.269964458521492408E-14, -0.2249999999999977851, 5.999999999999999112 ) ) ;
#337 = ORIENTED_EDGE ( 'NONE', *, *, #109, .T. ) ;
ENDSEC;
END-ISO-10303-21;
