ISO-10303-21;
HEADER;
FILE_DESCRIPTION (( 'STEP AP203' ),
    '1' );
FILE_NAME ('244.step',
    '2021-09-03T07:21:26',
    ( '' ),
    ( '' ),
    'SwSTEP 2.0',
    'SolidWorks 2019',
    '' );
FILE_SCHEMA (( 'CONFIG_CONTROL_DESIGN' ));
ENDSEC;

DATA;
#1 = ADVANCED_FACE ( 'NONE', ( #320 ), #286, .T. ) ;
#2 = DIRECTION ( 'NONE',  ( 0.0000000000000000000, 0.0000000000000000000, 1.000000000000000000 ) ) ;
#3 = ORIENTED_EDGE ( 'NONE', *, *, #242, .T. ) ;
#4 = PERSON_AND_ORGANIZATION_ROLE ( 'design_owner' ) ;
#5 = COORDINATED_UNIVERSAL_TIME_OFFSET ( 1, 0, .AHEAD. ) ;
#6 = CIRCLE ( 'NONE', #275, 0.09999999999999005518 ) ;
#7 = ADVANCED_FACE ( 'NONE', ( #294 ), #244, .T. ) ;
#8 = CARTESIAN_POINT ( 'NONE',  ( 1.043952920314096684E-13, 0.1999999999999866329, 29.89999999999999503 ) ) ;
#9 = DIRECTION ( 'NONE',  ( -3.491481338843133355E-15, 1.224646799147353207E-16, -1.000000000000000000 ) ) ;
#10 = ORIENTED_EDGE ( 'NONE', *, *, #325, .F. ) ;
#11 = CARTESIAN_POINT ( 'NONE',  ( 1.047444401652940007E-13, -3.673940397442059178E-15, 30.00000000000000000 ) ) ;
#12 = LINE ( 'NONE', #268, #298 ) ;
#13 = EDGE_LOOP ( 'NONE', ( #76, #40, #217, #314 ) ) ;
#14 = DIRECTION ( 'NONE',  ( 0.0000000000000000000, 1.000000000000000000, 0.0000000000000000000 ) ) ;
#15 = CARTESIAN_POINT ( 'NONE',  ( 0.0000000000000000000, 0.0000000000000000000, 0.0000000000000000000 ) ) ;
#16 = DIRECTION ( 'NONE',  ( 0.0000000000000000000, 1.000000000000000000, 0.0000000000000000000 ) ) ;
#17 = CC_DESIGN_SECURITY_CLASSIFICATION ( #251, ( #166 ) ) ;
#18 = CARTESIAN_POINT ( 'NONE',  ( 1.047444401652940007E-13, -3.673940397442059178E-15, 30.00000000000000000 ) ) ;
#19 = EDGE_CURVE ( 'NONE', #106, #58, #332, .T. ) ;
#20 = ORIENTED_EDGE ( 'NONE', *, *, #331, .T. ) ;
#21 = DIRECTION ( 'NONE',  ( -3.491481338843133355E-15, 1.224646799147353207E-16, -1.000000000000000000 ) ) ;
#22 = DESIGN_CONTEXT ( 'detailed design', #176, 'design' ) ;
#23 = VECTOR ( 'NONE', #145, 1000.000000000000000 ) ;
#24 = APPROVAL_PERSON_ORGANIZATION ( #53, #231, #259 ) ;
#25 = ADVANCED_FACE ( 'NONE', ( #293 ), #49, .T. ) ;
#26 = AXIS2_PLACEMENT_3D ( 'NONE', #215, #147, #238 ) ;
#27 = CC_DESIGN_PERSON_AND_ORGANIZATION_ASSIGNMENT ( #226, #279, ( #251 ) ) ;
#28 = LINE ( 'NONE', #120, #204 ) ;
#29 = PERSON_AND_ORGANIZATION_ROLE ( 'design_supplier' ) ;
#30 = CARTESIAN_POINT ( 'NONE',  ( 2.094888803305879382E-14, 0.1999999999999866329, 5.999999999999998224 ) ) ;
#31 = FACE_OUTER_BOUND ( 'NONE', #43, .T. ) ;
#32 = AXIS2_PLACEMENT_3D ( 'NONE', #125, #326, #128 ) ;
#33 = CC_DESIGN_PERSON_AND_ORGANIZATION_ASSIGNMENT ( #250, #311, ( #247 ) ) ;
#34 = AXIS2_PLACEMENT_3D ( 'NONE', #57, #2, #75 ) ;
#35 = COORDINATED_UNIVERSAL_TIME_OFFSET ( 1, 0, .AHEAD. ) ;
#36 = AXIS2_PLACEMENT_3D ( 'NONE', #240, #283, #233 ) ;
#37 = AXIS2_PLACEMENT_3D ( 'NONE', #196, #222, #173 ) ;
#38 = DIRECTION ( 'NONE',  ( 0.0000000000000000000, 1.000000000000000000, 0.0000000000000000000 ) ) ;
#39 = CARTESIAN_POINT ( 'NONE',  ( 2.094888803305879382E-14, 0.1999999999999866329, 5.999999999999998224 ) ) ;
#40 = ORIENTED_EDGE ( 'NONE', *, *, #325, .T. ) ;
#41 = CALENDAR_DATE ( 2021, 3, 9 ) ;
#42 = DIRECTION ( 'NONE',  ( -3.491481338843133355E-15, 1.224646799147353207E-16, -1.000000000000000000 ) ) ;
#43 = EDGE_LOOP ( 'NONE', ( #159, #10 ) ) ;
#44 =( NAMED_UNIT ( * ) PLANE_ANGLE_UNIT ( ) SI_UNIT ( $, .RADIAN. ) );
#45 = VERTEX_POINT ( 'NONE', #87 ) ;
#46 = ORIENTED_EDGE ( 'NONE', *, *, #124, .F. ) ;
#47 = CARTESIAN_POINT ( 'NONE',  ( 1.047444401652940007E-13, -3.673940397442059178E-15, 30.00000000000000000 ) ) ;
#48 = CARTESIAN_POINT ( 'NONE',  ( 0.0000000000000000000, 0.0000000000000000000, 0.0000000000000000000 ) ) ;
#49 = CYLINDRICAL_SURFACE ( 'NONE', #203, 0.1999999999999888534 ) ;
#50 = CARTESIAN_POINT ( 'NONE',  ( 4.195787277160699274E-16, -1.471684067651520610E-17, 0.1201721238055057372 ) ) ;
#51 = AXIS2_PLACEMENT_3D ( 'NONE', #323, #137, #141 ) ;
#52 = MANIFOLD_SOLID_BREP ( 'Corps-Déplacer/Copier1[1]', #211 ) ;
#53 = PERSON_AND_ORGANIZATION ( #208, #334 ) ;
#54 = DIRECTION ( 'NONE',  ( 4.275831445896958607E-31, 1.000000000000000000, 1.224646799147353207E-16 ) ) ;
#55 = DIRECTION ( 'NONE',  ( -4.275831445896958607E-31, -1.000000000000000000, -1.224646799147353207E-16 ) ) ;
#56 = APPROVAL_DATE_TIME ( #272, #200 ) ;
#57 = CARTESIAN_POINT ( 'NONE',  ( 0.0000000000000000000, 0.0000000000000000000, 0.0000000000000000000 ) ) ;
#58 = VERTEX_POINT ( 'NONE', #149 ) ;
#59 = DIRECTION ( 'NONE',  ( -3.491481338843133355E-15, 1.224646799147353207E-16, -1.000000000000000000 ) ) ;
#60 = APPROVAL_DATE_TIME ( #212, #89 ) ;
#61 = AXIS2_PLACEMENT_3D ( 'NONE', #11, #88, #16 ) ;
#62 = DIRECTION ( 'NONE',  ( -4.814824860968411055E-31, -1.000000000000000000, -1.355252715606971015E-16 ) ) ;
#63 = APPLICATION_PROTOCOL_DEFINITION ( 'international standard', 'config_control_design', 1994, #176 ) ;
#64 = DIRECTION ( 'NONE',  ( 4.275831445896958607E-31, 1.000000000000000000, 1.224646799147353207E-16 ) ) ;
#65 = CARTESIAN_POINT ( 'NONE',  ( 2.094888803305879382E-14, -7.347880794884117764E-16, 5.999999999999998224 ) ) ;
#66 = APPROVAL_STATUS ( 'not_yet_approved' ) ;
#67 = AXIS2_PLACEMENT_3D ( 'NONE', #199, #79, #278 ) ;
#68 = APPROVAL_ROLE ( '' ) ;
#69 = ORIENTED_EDGE ( 'NONE', *, *, #219, .T. ) ;
#70 = CARTESIAN_POINT ( 'NONE',  ( 1.047566866332854716E-13, -0.09999999999999373279, 30.00000000000000000 ) ) ;
#71 = ADVANCED_FACE ( 'NONE', ( #321 ), #94, .T. ) ;
#72 = ORIENTED_EDGE ( 'NONE', *, *, #270, .T. ) ;
#73 = CARTESIAN_POINT ( 'NONE',  ( 0.0000000000000000000, 0.0000000000000000000, 0.0000000000000000000 ) ) ;
#74 = CLOSED_SHELL ( 'NONE', ( #71, #7, #1, #236, #197 ) ) ;
#75 = DIRECTION ( 'NONE',  ( 1.000000000000000000, 0.0000000000000000000, 0.0000000000000000000 ) ) ;
#76 = ORIENTED_EDGE ( 'NONE', *, *, #193, .F. ) ;
#77 = COORDINATED_UNIVERSAL_TIME_OFFSET ( 1, 0, .AHEAD. ) ;
#78 = CC_DESIGN_PERSON_AND_ORGANIZATION_ASSIGNMENT ( #264, #29, ( #166 ) ) ;
#79 = DIRECTION ( 'NONE',  ( -3.491481338843133355E-15, 1.224646799147353207E-16, -1.000000000000000000 ) ) ;
#80 = CARTESIAN_POINT ( 'NONE',  ( 1.043952920314096684E-13, -3.661693929450585821E-15, 29.89999999999999503 ) ) ;
#81 = PLANE ( 'NONE',  #156 ) ;
#82 = ORIENTED_EDGE ( 'NONE', *, *, #287, .T. ) ;
#83 = ORIENTED_EDGE ( 'NONE', *, *, #124, .T. ) ;
#84 = PLANE ( 'NONE',  #110 ) ;
#85 = CIRCLE ( 'NONE', #61, 0.09999999999999005518 ) ;
#86 = LOCAL_TIME ( 9, 21, 26.00000000000000000, #77 ) ;
#87 = CARTESIAN_POINT ( 'NONE',  ( 4.195787277160698288E-16, -0.1999999999999866884, 0.1201721238055057095 ) ) ;
#88 = DIRECTION ( 'NONE',  ( -3.491481338843133355E-15, 1.224646799147353207E-16, -1.000000000000000000 ) ) ;
#89 = APPROVAL ( #66, 'UNSPECIFIED' ) ;
#90 = ORIENTED_EDGE ( 'NONE', *, *, #254, .T. ) ;
#91 = ORIENTED_EDGE ( 'NONE', *, *, #206, .F. ) ;
#92 = APPROVAL_ROLE ( '' ) ;
#93 = EDGE_LOOP ( 'NONE', ( #119, #20, #316, #165 ) ) ;
#94 = CYLINDRICAL_SURFACE ( 'NONE', #132, 0.1999999999999870215 ) ;
#95 = AXIS2_PLACEMENT_3D ( 'NONE', #80, #9, #14 ) ;
#96 = AXIS2_PLACEMENT_3D ( 'NONE', #248, #207, #62 ) ;
#97 = LINE ( 'NONE', #273, #229 ) ;
#98 = EDGE_CURVE ( 'NONE', #45, #113, #126, .T. ) ;
#99 = DIRECTION ( 'NONE',  ( 4.275831445896958607E-31, 1.000000000000000000, 1.224646799147353207E-16 ) ) ;
#100 = ORIENTED_EDGE ( 'NONE', *, *, #219, .F. ) ;
#101 = AXIS2_PLACEMENT_3D ( 'NONE', #228, #214, #38 ) ;
#102 = CC_DESIGN_APPROVAL ( #231, ( #251 ) ) ;
#103 = VERTEX_POINT ( 'NONE', #8 ) ;
#104 = AXIS2_PLACEMENT_3D ( 'NONE', #65, #42, #170 ) ;
#105 = DIRECTION ( 'NONE',  ( 4.275831445896958607E-31, 1.000000000000000000, 1.224646799147353207E-16 ) ) ;
#106 = VERTEX_POINT ( 'NONE', #205 ) ;
#107 = CALENDAR_DATE ( 2021, 3, 9 ) ;
#108 = CALENDAR_DATE ( 2021, 3, 9 ) ;
#109 = EDGE_CURVE ( 'NONE', #181, #113, #216, .T. ) ;
#110 = AXIS2_PLACEMENT_3D ( 'NONE', #191, #291, #64 ) ;
#111 = VERTEX_POINT ( 'NONE', #30 ) ;
#112 = PERSON_AND_ORGANIZATION ( #208, #334 ) ;
#113 = VERTEX_POINT ( 'NONE', #179 ) ;
#114 = VERTEX_POINT ( 'NONE', #73 ) ;
#115 = ADVANCED_BREP_SHAPE_REPRESENTATION ( '244', ( #52, #261, #34 ), #223 ) ;
#116 = DATE_TIME_ROLE ( 'creation_date' ) ;
#117 = ADVANCED_FACE ( 'NONE', ( #243 ), #185, .T. ) ;
#118 = DIRECTION ( 'NONE',  ( 3.491481338843133355E-15, -1.224646799147353207E-16, 1.000000000000000000 ) ) ;
#119 = ORIENTED_EDGE ( 'NONE', *, *, #302, .F. ) ;
#120 = CARTESIAN_POINT ( 'NONE',  ( 2.449293598294561400E-17, -0.1999999999999888534, -2.449293598294578040E-17 ) ) ;
#121 = PERSON_AND_ORGANIZATION ( #208, #334 ) ;
#122 = DIRECTION ( 'NONE',  ( -2.468850131082297292E-15, 0.7071067811865383579, -0.7071067811865566766 ) ) ;
#123 = DIRECTION ( 'NONE',  ( -3.491481338843133355E-15, 1.224646799147353207E-16, -1.000000000000000000 ) ) ;
#124 = EDGE_CURVE ( 'NONE', #114, #113, #157, .T. ) ;
#125 = CARTESIAN_POINT ( 'NONE',  ( 4.195787277160699274E-16, -1.471684067651520610E-17, 0.1201721238055057372 ) ) ;
#126 = CIRCLE ( 'NONE', #67, 0.1999999999999866607 ) ;
#127 = DIRECTION ( 'NONE',  ( -3.491481338843133355E-15, 1.224646799147353207E-16, -1.000000000000000000 ) ) ;
#128 = DIRECTION ( 'NONE',  ( -4.814824860968411055E-31, -1.000000000000000000, -1.355252715606971015E-16 ) ) ;
#129 = CIRCLE ( 'NONE', #252, 0.1999999999999873823 ) ;
#130 = COORDINATED_UNIVERSAL_TIME_OFFSET ( 1, 0, .AHEAD. ) ;
#131 = ORIENTED_EDGE ( 'NONE', *, *, #19, .T. ) ;
#132 = AXIS2_PLACEMENT_3D ( 'NONE', #48, #274, #99 ) ;
#133 = CC_DESIGN_APPROVAL ( #89, ( #247 ) ) ;
#134 = APPLICATION_CONTEXT ( 'configuration controlled 3d designs of mechanical parts and assemblies' ) ;
#135 = EDGE_CURVE ( 'NONE', #167, #103, #12, .T. ) ;
#136 = PERSON_AND_ORGANIZATION ( #208, #334 ) ;
#137 = DIRECTION ( 'NONE',  ( -3.491481338843133355E-15, 1.224646799147353207E-16, -1.000000000000000000 ) ) ;
#138 = SHAPE_DEFINITION_REPRESENTATION ( #265, #115 ) ;
#139 = AXIS2_PLACEMENT_3D ( 'NONE', #276, #337, #54 ) ;
#140 = DIRECTION ( 'NONE',  ( 1.903218546456026661E-15, 0.8571673007021091140, 0.5150380749100595956 ) ) ;
#141 = DIRECTION ( 'NONE',  ( 0.0000000000000000000, 1.000000000000000000, 0.0000000000000000000 ) ) ;
#142 = ADVANCED_FACE ( 'NONE', ( #153 ), #330, .F. ) ;
#143 = ORIENTED_EDGE ( 'NONE', *, *, #287, .F. ) ;
#144 = LINE ( 'NONE', #171, #292 ) ;
#145 = DIRECTION ( 'NONE',  ( -3.491481338843133355E-15, 1.224646799147353207E-16, -1.000000000000000000 ) ) ;
#146 = EDGE_LOOP ( 'NONE', ( #152, #290, #227, #324 ) ) ;
#147 = DIRECTION ( 'NONE',  ( -3.491481338843133355E-15, 1.224646799147353207E-16, -1.000000000000000000 ) ) ;
#148 = DIRECTION ( 'NONE',  ( 0.0000000000000000000, 1.000000000000000000, 0.0000000000000000000 ) ) ;
#149 = CARTESIAN_POINT ( 'NONE',  ( 6.269658296821657040E-14, -0.1999999999999939604, 29.89999999999999503 ) ) ;
#150 = CC_DESIGN_PERSON_AND_ORGANIZATION_ASSIGNMENT ( #136, #155, ( #166 ) ) ;
#151 = VECTOR ( 'NONE', #175, 999.9999999999998863 ) ;
#152 = ORIENTED_EDGE ( 'NONE', *, *, #206, .T. ) ;
#153 = FACE_OUTER_BOUND ( 'NONE', #245, .T. ) ;
#154 =( NAMED_UNIT ( * ) SI_UNIT ( $, .STERADIAN. ) SOLID_ANGLE_UNIT ( ) );
#155 = PERSON_AND_ORGANIZATION_ROLE ( 'creator' ) ;
#156 = AXIS2_PLACEMENT_3D ( 'NONE', #285, #118, #55 ) ;
#157 = LINE ( 'NONE', #333, #329 ) ;
#158 = SECURITY_CLASSIFICATION_LEVEL ( 'unclassified' ) ;
#159 = ORIENTED_EDGE ( 'NONE', *, *, #254, .F. ) ;
#160 = LOCAL_TIME ( 9, 21, 26.00000000000000000, #198 ) ;
#161 = CARTESIAN_POINT ( 'NONE',  ( 2.449293598294539213E-17, -0.1999999999999870215, -2.449293598294555853E-17 ) ) ;
#162 = ADVANCED_FACE ( 'NONE', ( #177 ), #168, .T. ) ;
#163 = DIRECTION ( 'NONE',  ( -3.491481338843133355E-15, 1.224646799147353207E-16, -1.000000000000000000 ) ) ;
#164 = ADVANCED_FACE ( 'NONE', ( #241 ), #84, .F. ) ;
#165 = ORIENTED_EDGE ( 'NONE', *, *, #312, .F. ) ;
#166 = PRODUCT_DEFINITION_FORMATION_WITH_SPECIFIED_SOURCE ( 'ANY', '', #297, .NOT_KNOWN. ) ;
#167 = VERTEX_POINT ( 'NONE', #255 ) ;
#168 = CONICAL_SURFACE ( 'NONE', #335, 0.09999999999999005518, 0.7853981633974351784 ) ;
#169 = EDGE_LOOP ( 'NONE', ( #288, #3, #189, #258 ) ) ;
#170 = DIRECTION ( 'NONE',  ( 0.0000000000000000000, 1.000000000000000000, 0.0000000000000000000 ) ) ;
#171 = CARTESIAN_POINT ( 'NONE',  ( 8.551662891793440115E-32, 0.1999999999999888534, 2.449293598294570028E-17 ) ) ;
#172 = EDGE_LOOP ( 'NONE', ( #46, #82, #308 ) ) ;
#173 = DIRECTION ( 'NONE',  ( -4.275831445896958607E-31, -1.000000000000000000, -1.224646799147353207E-16 ) ) ;
#174 = DATE_TIME_ROLE ( 'classification_date' ) ;
#175 = DIRECTION ( 'NONE',  ( -2.382254525458749813E-15, -0.7071067811865382469, -0.7071067811865568986 ) ) ;
#176 = APPLICATION_CONTEXT ( 'configuration controlled 3d designs of mechanical parts and assemblies' ) ;
#177 = FACE_OUTER_BOUND ( 'NONE', #295, .T. ) ;
#178 = CC_DESIGN_PERSON_AND_ORGANIZATION_ASSIGNMENT ( #180, #4, ( #297 ) ) ;
#179 = CARTESIAN_POINT ( 'NONE',  ( 4.440716636990154582E-16, 0.1999999999999866329, 0.1201721238055057650 ) ) ;
#180 = PERSON_AND_ORGANIZATION ( #208, #334 ) ;
#181 = VERTEX_POINT ( 'NONE', #39 ) ;
#182 = ORIENTED_EDGE ( 'NONE', *, *, #312, .T. ) ;
#183 = CIRCLE ( 'NONE', #36, 0.1999999999999873823 ) ;
#184 = LOCAL_TIME ( 9, 21, 26.00000000000000000, #130 ) ;
#185 = CYLINDRICAL_SURFACE ( 'NONE', #139, 0.1999999999999888534 ) ;
#186 = DIRECTION ( 'NONE',  ( 0.0000000000000000000, 1.000000000000000000, 0.0000000000000000000 ) ) ;
#187 = CALENDAR_DATE ( 2021, 3, 9 ) ;
#188 = CARTESIAN_POINT ( 'NONE',  ( 8.551662891793362387E-32, 0.1999999999999870215, 2.449293598294547533E-17 ) ) ;
#189 = ORIENTED_EDGE ( 'NONE', *, *, #135, .T. ) ;
#190 = CIRCLE ( 'NONE', #101, 0.1999999999999902967 ) ;
#191 = CARTESIAN_POINT ( 'NONE',  ( 1.047444401652940007E-13, 7.498798913307992283E-34, 30.00000000000000000 ) ) ;
#192 = DIRECTION ( 'NONE',  ( 0.0000000000000000000, 1.000000000000000000, 0.0000000000000000000 ) ) ;
#193 = EDGE_CURVE ( 'NONE', #267, #45, #280, .T. ) ;
#194 = VERTEX_POINT ( 'NONE', #313 ) ;
#195 = CONICAL_SURFACE ( 'NONE', #51, 0.09999999999999005518, 0.7853981633974351784 ) ;
#196 = CARTESIAN_POINT ( 'NONE',  ( 2.094888803305879382E-14, 1.499759782661751039E-33, 5.999999999999998224 ) ) ;
#197 = ADVANCED_FACE ( 'NONE', ( #31 ), #81, .T. ) ;
#198 = COORDINATED_UNIVERSAL_TIME_OFFSET ( 1, 0, .AHEAD. ) ;
#199 = CARTESIAN_POINT ( 'NONE',  ( 4.195787277160699274E-16, -1.471684067651520610E-17, 0.1201721238055057372 ) ) ;
#200 = APPROVAL ( #284, 'UNSPECIFIED' ) ;
#201 = MECHANICAL_CONTEXT ( 'NONE', #134, 'mechanical' ) ;
#202 = APPROVAL_DATE_TIME ( #253, #231 ) ;
#203 = AXIS2_PLACEMENT_3D ( 'NONE', #15, #213, #105 ) ;
#204 = VECTOR ( 'NONE', #249, 1000.000000000000000 ) ;
#205 = CARTESIAN_POINT ( 'NONE',  ( 1.045882358003390410E-13, -0.09999999999999373279, 30.00000000000000000 ) ) ;
#206 = EDGE_CURVE ( 'NONE', #103, #58, #190, .T. ) ;
#207 = DIRECTION ( 'NONE',  ( 3.491481338843133355E-15, -1.224646799147353207E-16, 1.000000000000000000 ) ) ;
#208 = PERSON ( 'UNSPECIFIED', 'UNSPECIFIED', 'UNSPECIFIED', ('UNSPECIFIED'), ('UNSPECIFIED'), ('UNSPECIFIED') ) ;
#209 = LOCAL_TIME ( 9, 21, 26.00000000000000000, #35 ) ;
#210 = CALENDAR_DATE ( 2021, 3, 9 ) ;
#211 = CLOSED_SHELL ( 'NONE', ( #162, #25, #142, #117, #305, #164 ) ) ;
#212 = DATE_AND_TIME ( #210, #304 ) ;
#213 = DIRECTION ( 'NONE',  ( -3.491481338843133355E-15, 1.224646799147353207E-16, -1.000000000000000000 ) ) ;
#214 = DIRECTION ( 'NONE',  ( -3.491481338843133355E-15, 1.224646799147353207E-16, -1.000000000000000000 ) ) ;
#215 = CARTESIAN_POINT ( 'NONE',  ( 0.0000000000000000000, 0.0000000000000000000, 0.0000000000000000000 ) ) ;
#216 = LINE ( 'NONE', #188, #23 ) ;
#217 = ORIENTED_EDGE ( 'NONE', *, *, #109, .T. ) ;
#218 = CIRCLE ( 'NONE', #269, 0.1999999999999873823 ) ;
#219 = EDGE_CURVE ( 'NONE', #167, #106, #85, .T. ) ;
#220 = VECTOR ( 'NONE', #163, 1000.000000000000000 ) ;
#221 = ORIENTED_EDGE ( 'NONE', *, *, #135, .F. ) ;
#222 = DIRECTION ( 'NONE',  ( 3.491481338843133355E-15, -1.224646799147353207E-16, 1.000000000000000000 ) ) ;
#223 =( GEOMETRIC_REPRESENTATION_CONTEXT ( 3 ) GLOBAL_UNCERTAINTY_ASSIGNED_CONTEXT ( ( #260 ) ) GLOBAL_UNIT_ASSIGNED_CONTEXT ( ( #318, #44, #154 ) ) REPRESENTATION_CONTEXT ( 'NONE', 'WORKASPACE' ) );
#224 = APPLICATION_PROTOCOL_DEFINITION ( 'international standard', 'config_control_design', 1994, #134 ) ;
#225 = EDGE_CURVE ( 'NONE', #111, #194, #266, .T. ) ;
#226 = PERSON_AND_ORGANIZATION ( #208, #334 ) ;
#227 = ORIENTED_EDGE ( 'NONE', *, *, #225, .F. ) ;
#228 = CARTESIAN_POINT ( 'NONE',  ( 1.043952920314096684E-13, -3.661693929450585821E-15, 29.89999999999999503 ) ) ;
#229 = VECTOR ( 'NONE', #246, 1000.000000000000000 ) ;
#230 = DIRECTION ( 'NONE',  ( 0.0000000000000000000, 1.000000000000000000, 0.0000000000000000000 ) ) ;
#231 = APPROVAL ( #277, 'UNSPECIFIED' ) ;
#232 = ORIENTED_EDGE ( 'NONE', *, *, #109, .F. ) ;
#233 = DIRECTION ( 'NONE',  ( 0.0000000000000000000, 1.000000000000000000, 0.0000000000000000000 ) ) ;
#234 = DIRECTION ( 'NONE',  ( -3.491481338843133355E-15, 1.224646799147353207E-16, -1.000000000000000000 ) ) ;
#235 = ORIENTED_EDGE ( 'NONE', *, *, #193, .T. ) ;
#236 = ADVANCED_FACE ( 'NONE', ( #257 ), #237, .T. ) ;
#237 = CYLINDRICAL_SURFACE ( 'NONE', #26, 0.1999999999999870215 ) ;
#238 = DIRECTION ( 'NONE',  ( 4.275831445896958607E-31, 1.000000000000000000, 1.224646799147353207E-16 ) ) ;
#239 = ORIENTED_EDGE ( 'NONE', *, *, #270, .F. ) ;
#240 = CARTESIAN_POINT ( 'NONE',  ( 2.094888803305879382E-14, -7.347880794884117764E-16, 5.999999999999998224 ) ) ;
#241 = FACE_OUTER_BOUND ( 'NONE', #263, .T. ) ;
#242 = EDGE_CURVE ( 'NONE', #106, #167, #6, .T. ) ;
#243 = FACE_OUTER_BOUND ( 'NONE', #93, .T. ) ;
#244 = CONICAL_SURFACE ( 'NONE', #96, 0.1999999999999866607, 1.029744258676648316 ) ;
#245 = EDGE_LOOP ( 'NONE', ( #296, #182 ) ) ;
#246 = DIRECTION ( 'NONE',  ( 1.798245827342164261E-15, -0.8571673007021092250, 0.5150380749100593736 ) ) ;
#247 = PRODUCT_DEFINITION ( 'UNKNOWN', '', #166, #22 ) ;
#248 = CARTESIAN_POINT ( 'NONE',  ( 4.195787277160699274E-16, -1.471684067651520610E-17, 0.1201721238055057372 ) ) ;
#249 = DIRECTION ( 'NONE',  ( -3.491481338843133355E-15, 1.224646799147353207E-16, -1.000000000000000000 ) ) ;
#250 = PERSON_AND_ORGANIZATION ( #208, #334 ) ;
#251 = SECURITY_CLASSIFICATION ( '', '', #158 ) ;
#252 = AXIS2_PLACEMENT_3D ( 'NONE', #262, #127, #148 ) ;
#253 = DATE_AND_TIME ( #108, #86 ) ;
#254 = EDGE_CURVE ( 'NONE', #181, #267, #129, .T. ) ;
#255 = CARTESIAN_POINT ( 'NONE',  ( 1.047444401652940007E-13, 0.09999999999998637756, 30.00000000000000000 ) ) ;
#256 = ORIENTED_EDGE ( 'NONE', *, *, #242, .F. ) ;
#257 = FACE_OUTER_BOUND ( 'NONE', #13, .T. ) ;
#258 = ORIENTED_EDGE ( 'NONE', *, *, #331, .F. ) ;
#259 = APPROVAL_ROLE ( '' ) ;
#260 = UNCERTAINTY_MEASURE_WITH_UNIT (LENGTH_MEASURE( 1.000000000000000082E-05 ), #318, 'distance_accuracy_value', 'NONE');
#261 = MANIFOLD_SOLID_BREP ( 'Corps-Déplacer/Copier1[2]', #74 ) ;
#262 = CARTESIAN_POINT ( 'NONE',  ( 2.094888803305879382E-14, -7.347880794884117764E-16, 5.999999999999998224 ) ) ;
#263 = EDGE_LOOP ( 'NONE', ( #100, #256 ) ) ;
#264 = PERSON_AND_ORGANIZATION ( #208, #334 ) ;
#265 = PRODUCT_DEFINITION_SHAPE ( 'NONE', 'NONE',  #247 ) ;
#266 = CIRCLE ( 'NONE', #104, 0.1999999999999873823 ) ;
#267 = VERTEX_POINT ( 'NONE', #300 ) ;
#268 = CARTESIAN_POINT ( 'NONE',  ( 1.047444401652940007E-13, 0.09999999999998637756, 30.00000000000000000 ) ) ;
#269 = AXIS2_PLACEMENT_3D ( 'NONE', #315, #59, #230 ) ;
#270 = EDGE_CURVE ( 'NONE', #113, #45, #327, .T. ) ;
#271 = EDGE_LOOP ( 'NONE', ( #143, #83, #72 ) ) ;
#272 = DATE_AND_TIME ( #107, #184 ) ;
#273 = CARTESIAN_POINT ( 'NONE',  ( 4.195787277160698288E-16, -0.1999999999999866884, 0.1201721238055057095 ) ) ;
#274 = DIRECTION ( 'NONE',  ( -3.491481338843133355E-15, 1.224646799147353207E-16, -1.000000000000000000 ) ) ;
#275 = AXIS2_PLACEMENT_3D ( 'NONE', #18, #123, #186 ) ;
#276 = CARTESIAN_POINT ( 'NONE',  ( 0.0000000000000000000, 0.0000000000000000000, 0.0000000000000000000 ) ) ;
#277 = APPROVAL_STATUS ( 'not_yet_approved' ) ;
#278 = DIRECTION ( 'NONE',  ( 4.814824860968411055E-31, 1.000000000000000000, 1.355252715606971015E-16 ) ) ;
#279 = PERSON_AND_ORGANIZATION_ROLE ( 'classification_officer' ) ;
#280 = LINE ( 'NONE', #161, #220 ) ;
#281 = CIRCLE ( 'NONE', #95, 0.1999999999999902967 ) ;
#282 = CC_DESIGN_DATE_AND_TIME_ASSIGNMENT ( #319, #116, ( #247 ) ) ;
#283 = DIRECTION ( 'NONE',  ( -3.491481338843133355E-15, 1.224646799147353207E-16, -1.000000000000000000 ) ) ;
#284 = APPROVAL_STATUS ( 'not_yet_approved' ) ;
#285 = CARTESIAN_POINT ( 'NONE',  ( 2.094888803305879382E-14, 1.499759782661751039E-33, 5.999999999999998224 ) ) ;
#286 = CONICAL_SURFACE ( 'NONE', #32, 0.1999999999999866607, 1.029744258676648316 ) ;
#287 = EDGE_CURVE ( 'NONE', #114, #45, #97, .T. ) ;
#288 = ORIENTED_EDGE ( 'NONE', *, *, #19, .F. ) ;
#289 = APPROVAL_PERSON_ORGANIZATION ( #121, #89, #92 ) ;
#290 = ORIENTED_EDGE ( 'NONE', *, *, #302, .T. ) ;
#291 = DIRECTION ( 'NONE',  ( -3.491481338843133355E-15, 1.224646799147353207E-16, -1.000000000000000000 ) ) ;
#292 = VECTOR ( 'NONE', #234, 1000.000000000000000 ) ;
#293 = FACE_OUTER_BOUND ( 'NONE', #146, .T. ) ;
#294 = FACE_OUTER_BOUND ( 'NONE', #271, .T. ) ;
#295 = EDGE_LOOP ( 'NONE', ( #69, #131, #91, #221 ) ) ;
#296 = ORIENTED_EDGE ( 'NONE', *, *, #225, .T. ) ;
#297 = PRODUCT ( '244', '244', '', ( #201 ) ) ;
#298 = VECTOR ( 'NONE', #122, 1000.000000000000000 ) ;
#299 = CC_DESIGN_DATE_AND_TIME_ASSIGNMENT ( #301, #174, ( #251 ) ) ;
#300 = CARTESIAN_POINT ( 'NONE',  ( 1.070872631637034196E-14, -0.1999999999999881040, 5.999999999999998224 ) ) ;
#301 = DATE_AND_TIME ( #41, #160 ) ;
#302 = EDGE_CURVE ( 'NONE', #58, #194, #28, .T. ) ;
#303 = DIRECTION ( 'NONE',  ( 4.814824860968411055E-31, 1.000000000000000000, 1.355252715606971015E-16 ) ) ;
#304 = LOCAL_TIME ( 9, 21, 26.00000000000000000, #5 ) ;
#305 = ADVANCED_FACE ( 'NONE', ( #310 ), #195, .T. ) ;
#306 = CC_DESIGN_APPROVAL ( #200, ( #166 ) ) ;
#307 = AXIS2_PLACEMENT_3D ( 'NONE', #50, #328, #303 ) ;
#308 = ORIENTED_EDGE ( 'NONE', *, *, #98, .T. ) ;
#309 = EDGE_CURVE ( 'NONE', #103, #111, #144, .T. ) ;
#310 = FACE_OUTER_BOUND ( 'NONE', #169, .T. ) ;
#311 = PERSON_AND_ORGANIZATION_ROLE ( 'creator' ) ;
#312 = EDGE_CURVE ( 'NONE', #194, #111, #183, .T. ) ;
#313 = CARTESIAN_POINT ( 'NONE',  ( 6.269658296821701216E-14, -0.1999999999999881040, 5.999999999999998224 ) ) ;
#314 = ORIENTED_EDGE ( 'NONE', *, *, #98, .F. ) ;
#315 = CARTESIAN_POINT ( 'NONE',  ( 2.094888803305879382E-14, -7.347880794884117764E-16, 5.999999999999998224 ) ) ;
#316 = ORIENTED_EDGE ( 'NONE', *, *, #309, .T. ) ;
#317 = PRODUCT_RELATED_PRODUCT_CATEGORY ( 'detail', '', ( #297 ) ) ;
#318 =( LENGTH_UNIT ( ) NAMED_UNIT ( * ) SI_UNIT ( .MILLI., .METRE. ) );
#319 = DATE_AND_TIME ( #187, #209 ) ;
#320 = FACE_OUTER_BOUND ( 'NONE', #172, .T. ) ;
#321 = FACE_OUTER_BOUND ( 'NONE', #322, .T. ) ;
#322 = EDGE_LOOP ( 'NONE', ( #90, #235, #239, #232 ) ) ;
#323 = CARTESIAN_POINT ( 'NONE',  ( 1.047444401652940007E-13, -3.673940397442059178E-15, 30.00000000000000000 ) ) ;
#324 = ORIENTED_EDGE ( 'NONE', *, *, #309, .F. ) ;
#325 = EDGE_CURVE ( 'NONE', #267, #181, #218, .T. ) ;
#326 = DIRECTION ( 'NONE',  ( 3.491481338843133355E-15, -1.224646799147353207E-16, 1.000000000000000000 ) ) ;
#327 = CIRCLE ( 'NONE', #307, 0.1999999999999866607 ) ;
#328 = DIRECTION ( 'NONE',  ( -3.491481338843133355E-15, 1.224646799147353207E-16, -1.000000000000000000 ) ) ;
#329 = VECTOR ( 'NONE', #140, 1000.000000000000114 ) ;
#330 = PLANE ( 'NONE',  #37 ) ;
#331 = EDGE_CURVE ( 'NONE', #58, #103, #281, .T. ) ;
#332 = LINE ( 'NONE', #70, #151 ) ;
#333 = CARTESIAN_POINT ( 'NONE',  ( 4.440716636990154582E-16, 0.1999999999999866329, 0.1201721238055057650 ) ) ;
#334 = ORGANIZATION ( 'UNSPECIFIED', 'UNSPECIFIED', '' ) ;
#335 = AXIS2_PLACEMENT_3D ( 'NONE', #47, #21, #192 ) ;
#336 = APPROVAL_PERSON_ORGANIZATION ( #112, #200, #68 ) ;
#337 = DIRECTION ( 'NONE',  ( -3.491481338843133355E-15, 1.224646799147353207E-16, -1.000000000000000000 ) ) ;
ENDSEC;
END-ISO-10303-21;
