ISO-10303-21;
HEADER;
FILE_DESCRIPTION (( 'STEP AP203' ),
    '1' );
FILE_NAME ('2424.step',
    '2021-12-06T12:58:34',
    ( '' ),
    ( '' ),
    'SwSTEP 2.0',
    'SolidWorks 2019',
    '' );
FILE_SCHEMA (( 'CONFIG_CONTROL_DESIGN' ));
ENDSEC;

DATA;
#1 = EDGE_LOOP ( 'NONE', ( #55 ) ) ;
#2 =( GEOMETRIC_REPRESENTATION_CONTEXT ( 3 ) GLOBAL_UNCERTAINTY_ASSIGNED_CONTEXT ( ( #8 ) ) GLOBAL_UNIT_ASSIGNED_CONTEXT ( ( #126, #123, #73 ) ) REPRESENTATION_CONTEXT ( 'NONE', 'WORKASPACE' ) );
#3 = FACE_BOUND ( 'NONE', #157, .T. ) ;
#4 = VERTEX_POINT ( 'NONE', #32 ) ;
#5 = CC_DESIGN_APPROVAL ( #77, ( #71 ) ) ;
#6 = CARTESIAN_POINT ( 'NONE',  ( 4.888073874380385120E-15, 4.000000000000000000, 1.399999999999999467 ) ) ;
#7 = PLANE ( 'NONE',  #165 ) ;
#8 = UNCERTAINTY_MEASURE_WITH_UNIT (LENGTH_MEASURE( 1.000000000000000082E-05 ), #126, 'distance_accuracy_value', 'NONE');
#9 = DATE_AND_TIME ( #40, #19 ) ;
#10 = APPROVAL ( #24, 'UNSPECIFIED' ) ;
#11 = CIRCLE ( 'NONE', #137, 15.00000000000000000 ) ;
#12 = APPROVAL_ROLE ( '' ) ;
#13 = PERSON ( 'UNSPECIFIED', 'UNSPECIFIED', 'UNSPECIFIED', ('UNSPECIFIED'), ('UNSPECIFIED'), ('UNSPECIFIED') ) ;
#14 = CC_DESIGN_APPROVAL ( #10, ( #28 ) ) ;
#15 = CLOSED_SHELL ( 'NONE', ( #161, #139, #135, #31 ) ) ;
#16 = CARTESIAN_POINT ( 'NONE',  ( 0.0000000000000000000, 0.0000000000000000000, 0.0000000000000000000 ) ) ;
#17 = APPLICATION_PROTOCOL_DEFINITION ( 'international standard', 'config_control_design', 1994, #127 ) ;
#18 = AXIS2_PLACEMENT_3D ( 'NONE', #16, #47, #88 ) ;
#19 = LOCAL_TIME ( 13, 58, 34.00000000000000000, #118 ) ;
#20 = VERTEX_POINT ( 'NONE', #160 ) ;
#21 = DIRECTION ( 'NONE',  ( -3.491481338843133355E-15, 9.622224850443486315E-17, -1.000000000000000000 ) ) ;
#22 = DATE_AND_TIME ( #141, #152 ) ;
#23 = PERSON_AND_ORGANIZATION ( #13, #39 ) ;
#24 = APPROVAL_STATUS ( 'not_yet_approved' ) ;
#25 = PERSON_AND_ORGANIZATION ( #13, #39 ) ;
#26 = ORIENTED_EDGE ( 'NONE', *, *, #148, .F. ) ;
#27 = ORIENTED_EDGE ( 'NONE', *, *, #111, .T. ) ;
#28 = PRODUCT_DEFINITION_FORMATION_WITH_SPECIFIED_SOURCE ( 'ANY', '', #56, .NOT_KNOWN. ) ;
#29 = PRODUCT_DEFINITION_SHAPE ( 'NONE', 'NONE',  #71 ) ;
#30 = CYLINDRICAL_SURFACE ( 'NONE', #18, 15.00000000000000000 ) ;
#31 = ADVANCED_FACE ( 'NONE', ( #108, #44 ), #67, .F. ) ;
#32 = CARTESIAN_POINT ( 'NONE',  ( 4.888073874380386697E-15, 15.00000000000000000, 1.399999999999999911 ) ) ;
#33 = FACE_OUTER_BOUND ( 'NONE', #81, .T. ) ;
#34 = SECURITY_CLASSIFICATION ( '', '', #164 ) ;
#35 = AXIS2_PLACEMENT_3D ( 'NONE', #149, #68, #122 ) ;
#36 = DIRECTION ( 'NONE',  ( 3.359581850347608582E-31, 1.000000000000000000, 9.622224850443486315E-17 ) ) ;
#37 = PERSON_AND_ORGANIZATION ( #13, #39 ) ;
#38 = PERSON_AND_ORGANIZATION ( #13, #39 ) ;
#39 = ORGANIZATION ( 'UNSPECIFIED', 'UNSPECIFIED', '' ) ;
#40 = CALENDAR_DATE ( 2021, 6, 12 ) ;
#41 = CC_DESIGN_PERSON_AND_ORGANIZATION_ASSIGNMENT ( #25, #63, ( #71 ) ) ;
#42 = EDGE_LOOP ( 'NONE', ( #43 ) ) ;
#43 = ORIENTED_EDGE ( 'NONE', *, *, #102, .F. ) ;
#44 = FACE_OUTER_BOUND ( 'NONE', #106, .T. ) ;
#45 = VERTEX_POINT ( 'NONE', #138 ) ;
#46 = APPROVAL ( #94, 'UNSPECIFIED' ) ;
#47 = DIRECTION ( 'NONE',  ( -3.491481338843133355E-15, 9.622224850443486315E-17, -1.000000000000000000 ) ) ;
#48 = DIRECTION ( 'NONE',  ( -3.491481338843133355E-15, 9.622224850443486315E-17, -1.000000000000000000 ) ) ;
#49 = CIRCLE ( 'NONE', #129, 4.000000000000000000 ) ;
#50 = MANIFOLD_SOLID_BREP ( 'Corps-Déplacer/Copier1', #15 ) ;
#51 = APPROVAL_ROLE ( '' ) ;
#52 = PERSON_AND_ORGANIZATION_ROLE ( 'design_supplier' ) ;
#53 = PERSON_AND_ORGANIZATION ( #13, #39 ) ;
#54 = CC_DESIGN_PERSON_AND_ORGANIZATION_ASSIGNMENT ( #53, #92, ( #34 ) ) ;
#55 = ORIENTED_EDGE ( 'NONE', *, *, #148, .T. ) ;
#56 = PRODUCT ( '2424', '2424', '', ( #115 ) ) ;
#57 = CARTESIAN_POINT ( 'NONE',  ( -5.039372775521413837E-30, 1.388808166087382497E-31, -1.443333727566522910E-15 ) ) ;
#58 = AXIS2_PLACEMENT_3D ( 'NONE', #159, #21, #97 ) ;
#59 = FACE_BOUND ( 'NONE', #80, .T. ) ;
#60 = DIRECTION ( 'NONE',  ( 1.000000000000000000, 0.0000000000000000000, 0.0000000000000000000 ) ) ;
#61 = APPLICATION_PROTOCOL_DEFINITION ( 'international standard', 'config_control_design', 1994, #134 ) ;
#62 = APPROVAL_DATE_TIME ( #154, #10 ) ;
#63 = PERSON_AND_ORGANIZATION_ROLE ( 'creator' ) ;
#64 = CIRCLE ( 'NONE', #35, 15.00000000000000000 ) ;
#65 = APPROVAL_DATE_TIME ( #9, #46 ) ;
#66 = PERSON_AND_ORGANIZATION ( #13, #39 ) ;
#67 = CYLINDRICAL_SURFACE ( 'NONE', #121, 4.000000000000000000 ) ;
#68 = DIRECTION ( 'NONE',  ( -3.491481338843133355E-15, 9.622224850443486315E-17, -1.000000000000000000 ) ) ;
#69 = PLANE ( 'NONE',  #58 ) ;
#70 = LOCAL_TIME ( 13, 58, 34.00000000000000000, #153 ) ;
#71 = PRODUCT_DEFINITION ( 'UNKNOWN', '', #28, #116 ) ;
#72 = DIRECTION ( 'NONE',  ( 3.359581850347609020E-31, 1.000000000000000000, 9.622224850443486315E-17 ) ) ;
#73 =( NAMED_UNIT ( * ) SI_UNIT ( $, .STERADIAN. ) SOLID_ANGLE_UNIT ( ) );
#74 = EDGE_CURVE ( 'NONE', #45, #45, #11, .T. ) ;
#75 = PERSON_AND_ORGANIZATION_ROLE ( 'creator' ) ;
#76 = AXIS2_PLACEMENT_3D ( 'NONE', #162, #89, #90 ) ;
#77 = APPROVAL ( #143, 'UNSPECIFIED' ) ;
#78 = PERSON_AND_ORGANIZATION ( #13, #39 ) ;
#79 = APPROVAL_PERSON_ORGANIZATION ( #23, #46, #167 ) ;
#80 = EDGE_LOOP ( 'NONE', ( #27 ) ) ;
#81 = EDGE_LOOP ( 'NONE', ( #132 ) ) ;
#82 = APPROVAL_PERSON_ORGANIZATION ( #37, #77, #51 ) ;
#83 = CC_DESIGN_SECURITY_CLASSIFICATION ( #34, ( #28 ) ) ;
#84 = EDGE_LOOP ( 'NONE', ( #107 ) ) ;
#85 = EDGE_LOOP ( 'NONE', ( #147 ) ) ;
#86 = CARTESIAN_POINT ( 'NONE',  ( 4.888073874380386697E-15, 4.000000000000000000, 1.399999999999999911 ) ) ;
#87 = VERTEX_POINT ( 'NONE', #86 ) ;
#88 = DIRECTION ( 'NONE',  ( 3.359581850347608582E-31, 1.000000000000000000, 9.622224850443486315E-17 ) ) ;
#89 = DIRECTION ( 'NONE',  ( -3.491481338843133355E-15, 9.622224850443486315E-17, -1.000000000000000000 ) ) ;
#90 = DIRECTION ( 'NONE',  ( 3.851859888774471706E-31, 1.000000000000000000, 1.084202172485504434E-16 ) ) ;
#91 = COORDINATED_UNIVERSAL_TIME_OFFSET ( 1, 0, .AHEAD. ) ;
#92 = PERSON_AND_ORGANIZATION_ROLE ( 'classification_officer' ) ;
#93 = DATE_AND_TIME ( #155, #95 ) ;
#94 = APPROVAL_STATUS ( 'not_yet_approved' ) ;
#95 = LOCAL_TIME ( 13, 58, 34.00000000000000000, #91 ) ;
#96 = CC_DESIGN_PERSON_AND_ORGANIZATION_ASSIGNMENT ( #78, #52, ( #28 ) ) ;
#97 = DIRECTION ( 'NONE',  ( 3.359581850347609020E-31, 1.000000000000000000, 9.622224850443486315E-17 ) ) ;
#98 = DIRECTION ( 'NONE',  ( -3.359581850347609020E-31, -1.000000000000000000, -9.622224850443486315E-17 ) ) ;
#99 = DIRECTION ( 'NONE',  ( 3.491481338843133355E-15, -9.622224850443486315E-17, 1.000000000000000000 ) ) ;
#100 = PERSON_AND_ORGANIZATION ( #13, #39 ) ;
#101 = DIRECTION ( 'NONE',  ( 0.0000000000000000000, 0.0000000000000000000, 1.000000000000000000 ) ) ;
#102 = EDGE_CURVE ( 'NONE', #4, #4, #64, .T. ) ;
#103 = DATE_TIME_ROLE ( 'creation_date' ) ;
#104 = COORDINATED_UNIVERSAL_TIME_OFFSET ( 1, 0, .AHEAD. ) ;
#105 = CALENDAR_DATE ( 2021, 6, 12 ) ;
#106 = EDGE_LOOP ( 'NONE', ( #131 ) ) ;
#107 = ORIENTED_EDGE ( 'NONE', *, *, #74, .F. ) ;
#108 = FACE_OUTER_BOUND ( 'NONE', #1, .T. ) ;
#109 = DIRECTION ( 'NONE',  ( -3.491481338843133355E-15, 9.622224850443486315E-17, -1.000000000000000000 ) ) ;
#110 = CIRCLE ( 'NONE', #76, 4.000000000000000000 ) ;
#111 = EDGE_CURVE ( 'NONE', #87, #87, #110, .T. ) ;
#112 = DIRECTION ( 'NONE',  ( -3.491481338843133355E-15, 9.622224850443486315E-17, -1.000000000000000000 ) ) ;
#113 = CARTESIAN_POINT ( 'NONE',  ( -1.343832740139043783E-30, 3.703488442899687061E-32, -3.848889940177394526E-16 ) ) ;
#114 = FACE_OUTER_BOUND ( 'NONE', #85, .T. ) ;
#115 = MECHANICAL_CONTEXT ( 'NONE', #127, 'mechanical' ) ;
#116 = DESIGN_CONTEXT ( 'detailed design', #134, 'design' ) ;
#117 = LOCAL_TIME ( 13, 58, 34.00000000000000000, #104 ) ;
#118 = COORDINATED_UNIVERSAL_TIME_OFFSET ( 1, 0, .AHEAD. ) ;
#119 = PRODUCT_RELATED_PRODUCT_CATEGORY ( 'detail', '', ( #56 ) ) ;
#120 = DIRECTION ( 'NONE',  ( 3.359581850347609020E-31, 1.000000000000000000, 9.622224850443486315E-17 ) ) ;
#121 = AXIS2_PLACEMENT_3D ( 'NONE', #145, #112, #120 ) ;
#122 = DIRECTION ( 'NONE',  ( 3.595069229522840405E-31, 1.000000000000000000, 1.011922027653137513E-16 ) ) ;
#123 =( NAMED_UNIT ( * ) PLANE_ANGLE_UNIT ( ) SI_UNIT ( $, .RADIAN. ) );
#124 = CC_DESIGN_DATE_AND_TIME_ASSIGNMENT ( #93, #103, ( #71 ) ) ;
#125 = APPROVAL_PERSON_ORGANIZATION ( #38, #10, #12 ) ;
#126 =( LENGTH_UNIT ( ) NAMED_UNIT ( * ) SI_UNIT ( .MILLI., .METRE. ) );
#127 = APPLICATION_CONTEXT ( 'configuration controlled 3d designs of mechanical parts and assemblies' ) ;
#128 = CC_DESIGN_PERSON_AND_ORGANIZATION_ASSIGNMENT ( #100, #151, ( #56 ) ) ;
#129 = AXIS2_PLACEMENT_3D ( 'NONE', #113, #48, #72 ) ;
#130 = CALENDAR_DATE ( 2021, 6, 12 ) ;
#131 = ORIENTED_EDGE ( 'NONE', *, *, #111, .F. ) ;
#132 = ORIENTED_EDGE ( 'NONE', *, *, #102, .T. ) ;
#133 = CC_DESIGN_DATE_AND_TIME_ASSIGNMENT ( #22, #169, ( #34 ) ) ;
#134 = APPLICATION_CONTEXT ( 'configuration controlled 3d designs of mechanical parts and assemblies' ) ;
#135 = ADVANCED_FACE ( 'NONE', ( #59, #150 ), #7, .T. ) ;
#136 = FACE_OUTER_BOUND ( 'NONE', #84, .T. ) ;
#137 = AXIS2_PLACEMENT_3D ( 'NONE', #57, #109, #36 ) ;
#138 = CARTESIAN_POINT ( 'NONE',  ( -6.842277657836020854E-46, 15.00000000000000000, 0.0000000000000000000 ) ) ;
#139 = ADVANCED_FACE ( 'NONE', ( #33, #136 ), #30, .T. ) ;
#140 = SHAPE_DEFINITION_REPRESENTATION ( #29, #158 ) ;
#141 = CALENDAR_DATE ( 2021, 6, 12 ) ;
#142 = DATE_AND_TIME ( #105, #70 ) ;
#143 = APPROVAL_STATUS ( 'not_yet_approved' ) ;
#144 = AXIS2_PLACEMENT_3D ( 'NONE', #163, #101, #60 ) ;
#145 = CARTESIAN_POINT ( 'NONE',  ( 0.0000000000000000000, 0.0000000000000000000, 0.0000000000000000000 ) ) ;
#146 = CC_DESIGN_APPROVAL ( #46, ( #34 ) ) ;
#147 = ORIENTED_EDGE ( 'NONE', *, *, #74, .T. ) ;
#148 = EDGE_CURVE ( 'NONE', #20, #20, #49, .T. ) ;
#149 = CARTESIAN_POINT ( 'NONE',  ( 4.888073874380381175E-15, -1.347111479062086531E-16, 1.399999999999998579 ) ) ;
#150 = FACE_OUTER_BOUND ( 'NONE', #42, .T. ) ;
#151 = PERSON_AND_ORGANIZATION_ROLE ( 'design_owner' ) ;
#152 = LOCAL_TIME ( 13, 58, 34.00000000000000000, #166 ) ;
#153 = COORDINATED_UNIVERSAL_TIME_OFFSET ( 1, 0, .AHEAD. ) ;
#154 = DATE_AND_TIME ( #130, #117 ) ;
#155 = CALENDAR_DATE ( 2021, 6, 12 ) ;
#156 = APPROVAL_DATE_TIME ( #142, #77 ) ;
#157 = EDGE_LOOP ( 'NONE', ( #26 ) ) ;
#158 = ADVANCED_BREP_SHAPE_REPRESENTATION ( '2424', ( #50, #144 ), #2 ) ;
#159 = CARTESIAN_POINT ( 'NONE',  ( -1.847770017691185027E-30, 4.000000000000000000, -5.292223667743917535E-16 ) ) ;
#160 = CARTESIAN_POINT ( 'NONE',  ( -1.710569414459005214E-46, 4.000000000000000000, 0.0000000000000000000 ) ) ;
#161 = ADVANCED_FACE ( 'NONE', ( #114, #3 ), #69, .T. ) ;
#162 = CARTESIAN_POINT ( 'NONE',  ( 4.888073874380385120E-15, -1.347111479062087517E-16, 1.399999999999999467 ) ) ;
#163 = CARTESIAN_POINT ( 'NONE',  ( 0.0000000000000000000, 0.0000000000000000000, 0.0000000000000000000 ) ) ;
#164 = SECURITY_CLASSIFICATION_LEVEL ( 'unclassified' ) ;
#165 = AXIS2_PLACEMENT_3D ( 'NONE', #6, #99, #98 ) ;
#166 = COORDINATED_UNIVERSAL_TIME_OFFSET ( 1, 0, .AHEAD. ) ;
#167 = APPROVAL_ROLE ( '' ) ;
#168 = CC_DESIGN_PERSON_AND_ORGANIZATION_ASSIGNMENT ( #66, #75, ( #28 ) ) ;
#169 = DATE_TIME_ROLE ( 'classification_date' ) ;
ENDSEC;
END-ISO-10303-21;
