ISO-10303-21;
HEADER;
FILE_DESCRIPTION (( 'STEP AP203' ),
    '1' );
FILE_NAME ('2422.step',
    '2021-12-06T12:58:34',
    ( '' ),
    ( '' ),
    'SwSTEP 2.0',
    'SolidWorks 2019',
    '' );
FILE_SCHEMA (( 'CONFIG_CONTROL_DESIGN' ));
ENDSEC;

DATA;
#1 = CARTESIAN_POINT ( 'NONE',  ( 3.840629472727445902E-15, -1.347111479062087517E-16, 1.099999999999999645 ) ) ;
#2 = CARTESIAN_POINT ( 'NONE',  ( 3.840629472727447480E-15, 4.000000000000000000, 1.100000000000000089 ) ) ;
#3 = EDGE_LOOP ( 'NONE', ( #53 ) ) ;
#4 = MECHANICAL_CONTEXT ( 'NONE', #52, 'mechanical' ) ;
#5 = CC_DESIGN_SECURITY_CLASSIFICATION ( #137, ( #114 ) ) ;
#6 = DIRECTION ( 'NONE',  ( -3.491481338843133355E-15, 1.224646799147352714E-16, -1.000000000000000000 ) ) ;
#7 = CC_DESIGN_PERSON_AND_ORGANIZATION_ASSIGNMENT ( #161, #111, ( #114 ) ) ;
#8 = APPROVAL_ROLE ( '' ) ;
#9 = APPROVAL_PERSON_ORGANIZATION ( #67, #141, #63 ) ;
#10 = CC_DESIGN_PERSON_AND_ORGANIZATION_ASSIGNMENT ( #123, #88, ( #114 ) ) ;
#11 = AXIS2_PLACEMENT_3D ( 'NONE', #16, #29, #119 ) ;
#12 = AXIS2_PLACEMENT_3D ( 'NONE', #80, #78, #128 ) ;
#13 = CARTESIAN_POINT ( 'NONE',  ( -5.344789307371196069E-30, 1.874699728327320806E-31, -1.530808498934190930E-15 ) ) ;
#14 = ORGANIZATION ( 'UNSPECIFIED', 'UNSPECIFIED', '' ) ;
#15 = PLANE ( 'NONE',  #11 ) ;
#16 = CARTESIAN_POINT ( 'NONE',  ( -1.817228364506206663E-30, 4.000000000000000000, -5.204748896376249713E-16 ) ) ;
#17 = EDGE_LOOP ( 'NONE', ( #100 ) ) ;
#18 = CARTESIAN_POINT ( 'NONE',  ( 0.0000000000000000000, 0.0000000000000000000, 0.0000000000000000000 ) ) ;
#19 = FACE_OUTER_BOUND ( 'NONE', #17, .T. ) ;
#20 = LOCAL_TIME ( 13, 58, 34.00000000000000000, #74 ) ;
#21 = DATE_TIME_ROLE ( 'creation_date' ) ;
#22 = APPROVAL_DATE_TIME ( #49, #129 ) ;
#23 = CIRCLE ( 'NONE', #82, 12.50000000000000000 ) ;
#24 = APPROVAL ( #139, 'UNSPECIFIED' ) ;
#25 = PERSON_AND_ORGANIZATION ( #150, #14 ) ;
#26 = PRODUCT_DEFINITION_SHAPE ( 'NONE', 'NONE',  #46 ) ;
#27 = PRODUCT_RELATED_PRODUCT_CATEGORY ( 'detail', '', ( #70 ) ) ;
#28 = DIRECTION ( 'NONE',  ( 4.275831445896956855E-31, 1.000000000000000000, 1.224646799147352714E-16 ) ) ;
#29 = DIRECTION ( 'NONE',  ( -3.491481338843133355E-15, 1.224646799147352714E-16, -1.000000000000000000 ) ) ;
#30 = ADVANCED_FACE ( 'NONE', ( #50, #59 ), #152, .T. ) ;
#31 = FACE_BOUND ( 'NONE', #153, .T. ) ;
#32 =( NAMED_UNIT ( * ) SI_UNIT ( $, .STERADIAN. ) SOLID_ANGLE_UNIT ( ) );
#33 = CYLINDRICAL_SURFACE ( 'NONE', #62, 12.50000000000000000 ) ;
#34 = CIRCLE ( 'NONE', #159, 4.000000000000000000 ) ;
#35 = APPROVAL_STATUS ( 'not_yet_approved' ) ;
#36 = DESIGN_CONTEXT ( 'detailed design', #89, 'design' ) ;
#37 = PERSON_AND_ORGANIZATION ( #150, #14 ) ;
#38 = DATE_AND_TIME ( #75, #20 ) ;
#39 = LOCAL_TIME ( 13, 58, 34.00000000000000000, #134 ) ;
#40 = EDGE_CURVE ( 'NONE', #68, #68, #23, .T. ) ;
#41 = UNCERTAINTY_MEASURE_WITH_UNIT (LENGTH_MEASURE( 1.000000000000000082E-05 ), #147, 'distance_accuracy_value', 'NONE');
#42 = ORIENTED_EDGE ( 'NONE', *, *, #169, .F. ) ;
#43 = DIRECTION ( 'NONE',  ( -3.491481338843133355E-15, 1.224646799147352714E-16, -1.000000000000000000 ) ) ;
#44 = CC_DESIGN_APPROVAL ( #129, ( #114 ) ) ;
#45 = DIRECTION ( 'NONE',  ( -3.491481338843133355E-15, 1.224646799147352714E-16, -1.000000000000000000 ) ) ;
#46 = PRODUCT_DEFINITION ( 'UNKNOWN', '', #114, #36 ) ;
#47 = APPROVAL_ROLE ( '' ) ;
#48 = LOCAL_TIME ( 13, 58, 34.00000000000000000, #98 ) ;
#49 = DATE_AND_TIME ( #164, #60 ) ;
#50 = FACE_BOUND ( 'NONE', #113, .T. ) ;
#51 = EDGE_CURVE ( 'NONE', #57, #57, #143, .T. ) ;
#52 = APPLICATION_CONTEXT ( 'configuration controlled 3d designs of mechanical parts and assemblies' ) ;
#53 = ORIENTED_EDGE ( 'NONE', *, *, #169, .T. ) ;
#54 = APPROVAL_PERSON_ORGANIZATION ( #121, #129, #47 ) ;
#55 = FACE_OUTER_BOUND ( 'NONE', #3, .T. ) ;
#56 = ORIENTED_EDGE ( 'NONE', *, *, #85, .F. ) ;
#57 = VERTEX_POINT ( 'NONE', #2 ) ;
#58 = CARTESIAN_POINT ( 'NONE',  ( 3.840629472727441958E-15, -1.347111479062086038E-16, 1.099999999999998535 ) ) ;
#59 = FACE_OUTER_BOUND ( 'NONE', #156, .T. ) ;
#60 = LOCAL_TIME ( 13, 58, 34.00000000000000000, #73 ) ;
#61 = FACE_OUTER_BOUND ( 'NONE', #127, .T. ) ;
#62 = AXIS2_PLACEMENT_3D ( 'NONE', #144, #117, #107 ) ;
#63 = APPROVAL_ROLE ( '' ) ;
#64 = PERSON_AND_ORGANIZATION_ROLE ( 'classification_officer' ) ;
#65 = APPROVAL_DATE_TIME ( #151, #24 ) ;
#66 = MANIFOLD_SOLID_BREP ( 'Corps-Déplacer/Copier1', #118 ) ;
#67 = PERSON_AND_ORGANIZATION ( #150, #14 ) ;
#68 = VERTEX_POINT ( 'NONE', #116 ) ;
#69 = CARTESIAN_POINT ( 'NONE',  ( -1.710332578358782392E-30, 5.999039130647424958E-32, -4.898587196589410857E-16 ) ) ;
#70 = PRODUCT ( '2422', '2422', '', ( #4 ) ) ;
#71 = APPLICATION_PROTOCOL_DEFINITION ( 'international standard', 'config_control_design', 1994, #52 ) ;
#72 = DIRECTION ( 'NONE',  ( 3.851859888774471706E-31, 1.000000000000000000, 1.084202172485504434E-16 ) ) ;
#73 = COORDINATED_UNIVERSAL_TIME_OFFSET ( 1, 0, .AHEAD. ) ;
#74 = COORDINATED_UNIVERSAL_TIME_OFFSET ( 1, 0, .AHEAD. ) ;
#75 = CALENDAR_DATE ( 2021, 6, 12 ) ;
#76 = CC_DESIGN_APPROVAL ( #24, ( #137 ) ) ;
#77 = ADVANCED_FACE ( 'NONE', ( #92, #31 ), #15, .T. ) ;
#78 = DIRECTION ( 'NONE',  ( -3.491481338843133355E-15, 1.224646799147352714E-16, -1.000000000000000000 ) ) ;
#79 = AXIS2_PLACEMENT_3D ( 'NONE', #58, #43, #160 ) ;
#80 = CARTESIAN_POINT ( 'NONE',  ( 0.0000000000000000000, 0.0000000000000000000, 0.0000000000000000000 ) ) ;
#81 = CARTESIAN_POINT ( 'NONE',  ( 3.840629472727447480E-15, 12.50000000000000000, 1.100000000000000089 ) ) ;
#82 = AXIS2_PLACEMENT_3D ( 'NONE', #13, #154, #28 ) ;
#83 = DIRECTION ( 'NONE',  ( 4.275831445896956855E-31, 1.000000000000000000, 1.224646799147352714E-16 ) ) ;
#84 = CALENDAR_DATE ( 2021, 6, 12 ) ;
#85 = EDGE_CURVE ( 'NONE', #104, #104, #34, .T. ) ;
#86 = DATE_AND_TIME ( #84, #105 ) ;
#87 =( GEOMETRIC_REPRESENTATION_CONTEXT ( 3 ) GLOBAL_UNCERTAINTY_ASSIGNED_CONTEXT ( ( #41 ) ) GLOBAL_UNIT_ASSIGNED_CONTEXT ( ( #147, #91, #32 ) ) REPRESENTATION_CONTEXT ( 'NONE', 'WORKASPACE' ) );
#88 = PERSON_AND_ORGANIZATION_ROLE ( 'creator' ) ;
#89 = APPLICATION_CONTEXT ( 'configuration controlled 3d designs of mechanical parts and assemblies' ) ;
#90 = DIRECTION ( 'NONE',  ( 3.491481338843133355E-15, -1.224646799147352714E-16, 1.000000000000000000 ) ) ;
#91 =( NAMED_UNIT ( * ) PLANE_ANGLE_UNIT ( ) SI_UNIT ( $, .RADIAN. ) );
#92 = FACE_OUTER_BOUND ( 'NONE', #108, .T. ) ;
#93 = VERTEX_POINT ( 'NONE', #81 ) ;
#94 = ORIENTED_EDGE ( 'NONE', *, *, #85, .T. ) ;
#95 = PERSON_AND_ORGANIZATION_ROLE ( 'creator' ) ;
#96 = CIRCLE ( 'NONE', #79, 12.50000000000000000 ) ;
#97 = CALENDAR_DATE ( 2021, 6, 12 ) ;
#98 = COORDINATED_UNIVERSAL_TIME_OFFSET ( 1, 0, .AHEAD. ) ;
#99 = AXIS2_PLACEMENT_3D ( 'NONE', #1, #45, #72 ) ;
#100 = ORIENTED_EDGE ( 'NONE', *, *, #51, .F. ) ;
#101 = APPROVAL_STATUS ( 'not_yet_approved' ) ;
#102 = ORIENTED_EDGE ( 'NONE', *, *, #40, .F. ) ;
#103 = DIRECTION ( 'NONE',  ( 0.0000000000000000000, 0.0000000000000000000, 1.000000000000000000 ) ) ;
#104 = VERTEX_POINT ( 'NONE', #157 ) ;
#105 = LOCAL_TIME ( 13, 58, 34.00000000000000000, #165 ) ;
#106 = PERSON_AND_ORGANIZATION_ROLE ( 'design_owner' ) ;
#107 = DIRECTION ( 'NONE',  ( 4.275831445896956855E-31, 1.000000000000000000, 1.224646799147352714E-16 ) ) ;
#108 = EDGE_LOOP ( 'NONE', ( #122 ) ) ;
#109 = CC_DESIGN_APPROVAL ( #141, ( #46 ) ) ;
#110 = CALENDAR_DATE ( 2021, 6, 12 ) ;
#111 = PERSON_AND_ORGANIZATION_ROLE ( 'design_supplier' ) ;
#112 = PERSON_AND_ORGANIZATION ( #150, #14 ) ;
#113 = EDGE_LOOP ( 'NONE', ( #168 ) ) ;
#114 = PRODUCT_DEFINITION_FORMATION_WITH_SPECIFIED_SOURCE ( 'ANY', '', #70, .NOT_KNOWN. ) ;
#115 = PERSON_AND_ORGANIZATION ( #150, #14 ) ;
#116 = CARTESIAN_POINT ( 'NONE',  ( 0.0000000000000000000, 12.50000000000000000, 0.0000000000000000000 ) ) ;
#117 = DIRECTION ( 'NONE',  ( -3.491481338843133355E-15, 1.224646799147352714E-16, -1.000000000000000000 ) ) ;
#118 = CLOSED_SHELL ( 'NONE', ( #77, #163, #30, #131 ) ) ;
#119 = DIRECTION ( 'NONE',  ( 4.275831445896956855E-31, 1.000000000000000000, 1.224646799147352714E-16 ) ) ;
#120 = CC_DESIGN_DATE_AND_TIME_ASSIGNMENT ( #38, #21, ( #46 ) ) ;
#121 = PERSON_AND_ORGANIZATION ( #150, #14 ) ;
#122 = ORIENTED_EDGE ( 'NONE', *, *, #40, .T. ) ;
#123 = PERSON_AND_ORGANIZATION ( #150, #14 ) ;
#124 = AXIS2_PLACEMENT_3D ( 'NONE', #18, #103, #133 ) ;
#125 = CC_DESIGN_PERSON_AND_ORGANIZATION_ASSIGNMENT ( #37, #64, ( #137 ) ) ;
#126 = ADVANCED_BREP_SHAPE_REPRESENTATION ( '2422', ( #66, #124 ), #87 ) ;
#127 = EDGE_LOOP ( 'NONE', ( #102 ) ) ;
#128 = DIRECTION ( 'NONE',  ( 4.275831445896956855E-31, 1.000000000000000000, 1.224646799147352714E-16 ) ) ;
#129 = APPROVAL ( #35, 'UNSPECIFIED' ) ;
#130 = CYLINDRICAL_SURFACE ( 'NONE', #12, 4.000000000000000000 ) ;
#131 = ADVANCED_FACE ( 'NONE', ( #146, #19 ), #130, .F. ) ;
#132 = APPLICATION_PROTOCOL_DEFINITION ( 'international standard', 'config_control_design', 1994, #89 ) ;
#133 = DIRECTION ( 'NONE',  ( 1.000000000000000000, 0.0000000000000000000, 0.0000000000000000000 ) ) ;
#134 = COORDINATED_UNIVERSAL_TIME_OFFSET ( 1, 0, .AHEAD. ) ;
#135 = CC_DESIGN_DATE_AND_TIME_ASSIGNMENT ( #86, #138, ( #137 ) ) ;
#136 = DATE_AND_TIME ( #110, #48 ) ;
#137 = SECURITY_CLASSIFICATION ( '', '', #148 ) ;
#138 = DATE_TIME_ROLE ( 'classification_date' ) ;
#139 = APPROVAL_STATUS ( 'not_yet_approved' ) ;
#140 = AXIS2_PLACEMENT_3D ( 'NONE', #158, #90, #145 ) ;
#141 = APPROVAL ( #101, 'UNSPECIFIED' ) ;
#142 = APPROVAL_PERSON_ORGANIZATION ( #25, #24, #8 ) ;
#143 = CIRCLE ( 'NONE', #99, 4.000000000000000000 ) ;
#144 = CARTESIAN_POINT ( 'NONE',  ( 0.0000000000000000000, 0.0000000000000000000, 0.0000000000000000000 ) ) ;
#145 = DIRECTION ( 'NONE',  ( -4.275831445896956855E-31, -1.000000000000000000, -1.224646799147352714E-16 ) ) ;
#146 = FACE_OUTER_BOUND ( 'NONE', #162, .T. ) ;
#147 =( LENGTH_UNIT ( ) NAMED_UNIT ( * ) SI_UNIT ( .MILLI., .METRE. ) );
#148 = SECURITY_CLASSIFICATION_LEVEL ( 'unclassified' ) ;
#149 = SHAPE_DEFINITION_REPRESENTATION ( #26, #126 ) ;
#150 = PERSON ( 'UNSPECIFIED', 'UNSPECIFIED', 'UNSPECIFIED', ('UNSPECIFIED'), ('UNSPECIFIED'), ('UNSPECIFIED') ) ;
#151 = DATE_AND_TIME ( #97, #39 ) ;
#152 = PLANE ( 'NONE',  #140 ) ;
#153 = EDGE_LOOP ( 'NONE', ( #56 ) ) ;
#154 = DIRECTION ( 'NONE',  ( -3.491481338843133355E-15, 1.224646799147352714E-16, -1.000000000000000000 ) ) ;
#155 = CC_DESIGN_PERSON_AND_ORGANIZATION_ASSIGNMENT ( #112, #95, ( #46 ) ) ;
#156 = EDGE_LOOP ( 'NONE', ( #42 ) ) ;
#157 = CARTESIAN_POINT ( 'NONE',  ( 3.421138828918010427E-46, 4.000000000000000000, 0.0000000000000000000 ) ) ;
#158 = CARTESIAN_POINT ( 'NONE',  ( 3.840629472727445902E-15, 4.000000000000000000, 1.099999999999999645 ) ) ;
#159 = AXIS2_PLACEMENT_3D ( 'NONE', #69, #6, #83 ) ;
#160 = DIRECTION ( 'NONE',  ( 4.314083075427408311E-31, 1.000000000000000000, 1.214306433183764966E-16 ) ) ;
#161 = PERSON_AND_ORGANIZATION ( #150, #14 ) ;
#162 = EDGE_LOOP ( 'NONE', ( #94 ) ) ;
#163 = ADVANCED_FACE ( 'NONE', ( #55, #61 ), #33, .T. ) ;
#164 = CALENDAR_DATE ( 2021, 6, 12 ) ;
#165 = COORDINATED_UNIVERSAL_TIME_OFFSET ( 1, 0, .AHEAD. ) ;
#166 = APPROVAL_DATE_TIME ( #136, #141 ) ;
#167 = CC_DESIGN_PERSON_AND_ORGANIZATION_ASSIGNMENT ( #115, #106, ( #70 ) ) ;
#168 = ORIENTED_EDGE ( 'NONE', *, *, #51, .T. ) ;
#169 = EDGE_CURVE ( 'NONE', #93, #93, #96, .T. ) ;
ENDSEC;
END-ISO-10303-21;
