ISO-10303-21;
HEADER;
FILE_DESCRIPTION (( 'STEP AP203' ),
    '1' );
FILE_NAME ('2421.step',
    '2021-12-06T12:58:33',
    ( '' ),
    ( '' ),
    'SwSTEP 2.0',
    'SolidWorks 2019',
    '' );
FILE_SCHEMA (( 'CONFIG_CONTROL_DESIGN' ));
ENDSEC;

DATA;
#1 = LOCAL_TIME ( 13, 58, 33.00000000000000000, #62 ) ;
#2 = EDGE_LOOP ( 'NONE', ( #132 ) ) ;
#3 = DIRECTION ( 'NONE',  ( -3.491481338843133355E-15, -1.258343394431540947E-15, -1.000000000000000000 ) ) ;
#4 = MANIFOLD_SOLID_BREP ( 'Corps-Déplacer/Copier1', #43 ) ;
#5 = SECURITY_CLASSIFICATION ( '', '', #138 ) ;
#6 = EDGE_LOOP ( 'NONE', ( #160 ) ) ;
#7 = APPROVAL_DATE_TIME ( #123, #152 ) ;
#8 = APPROVAL_PERSON_ORGANIZATION ( #10, #58, #99 ) ;
#9 = PERSON ( 'UNSPECIFIED', 'UNSPECIFIED', 'UNSPECIFIED', ('UNSPECIFIED'), ('UNSPECIFIED'), ('UNSPECIFIED') ) ;
#10 = PERSON_AND_ORGANIZATION ( #9, #80 ) ;
#11 = APPROVAL_ROLE ( '' ) ;
#12 = DIRECTION ( 'NONE',  ( 3.491481338843133355E-15, 1.258343394431540947E-15, 1.000000000000000000 ) ) ;
#13 = LOCAL_TIME ( 13, 58, 33.00000000000000000, #164 ) ;
#14 = CC_DESIGN_PERSON_AND_ORGANIZATION_ASSIGNMENT ( #18, #139, ( #109 ) ) ;
#15 = DIRECTION ( 'NONE',  ( -3.491481338843133355E-15, -1.258343394431540947E-15, -1.000000000000000000 ) ) ;
#16 = CARTESIAN_POINT ( 'NONE',  ( 1.047444401652940007E-15, 4.000000000000000000, 0.2999999999999999889 ) ) ;
#17 = AXIS2_PLACEMENT_3D ( 'NONE', #169, #54, #155 ) ;
#18 = PERSON_AND_ORGANIZATION ( #9, #80 ) ;
#19 = DATE_AND_TIME ( #167, #117 ) ;
#20 = APPLICATION_CONTEXT ( 'configuration controlled 3d designs of mechanical parts and assemblies' ) ;
#21 = PERSON_AND_ORGANIZATION_ROLE ( 'design_supplier' ) ;
#22 = EDGE_CURVE ( 'NONE', #76, #76, #73, .T. ) ;
#23 =( GEOMETRIC_REPRESENTATION_CONTEXT ( 3 ) GLOBAL_UNCERTAINTY_ASSIGNED_CONTEXT ( ( #104 ) ) GLOBAL_UNIT_ASSIGNED_CONTEXT ( ( #107, #157, #131 ) ) REPRESENTATION_CONTEXT ( 'NONE', 'WORKASPACE' ) );
#24 = CYLINDRICAL_SURFACE ( 'NONE', #156, 12.50000000000000000 ) ;
#25 = DIRECTION ( 'NONE',  ( -3.491481338843133355E-15, -1.258343394431540947E-15, -1.000000000000000000 ) ) ;
#26 = DIRECTION ( 'NONE',  ( -3.491481338843133355E-15, -1.258343394431540947E-15, -1.000000000000000000 ) ) ;
#27 = CC_DESIGN_APPROVAL ( #152, ( #5 ) ) ;
#28 = FACE_OUTER_BOUND ( 'NONE', #122, .T. ) ;
#29 = FACE_OUTER_BOUND ( 'NONE', #6, .T. ) ;
#30 = ORIENTED_EDGE ( 'NONE', *, *, #22, .F. ) ;
#31 = DIRECTION ( 'NONE',  ( -4.381490623480961566E-30, 1.000000000000000000, -1.260385025514398905E-15 ) ) ;
#32 = APPLICATION_CONTEXT ( 'configuration controlled 3d designs of mechanical parts and assemblies' ) ;
#33 = CARTESIAN_POINT ( 'NONE',  ( 1.757392991805699730E-29, 6.333712393237971445E-30, 5.033373577726163787E-15 ) ) ;
#34 = COORDINATED_UNIVERSAL_TIME_OFFSET ( 1, 0, .AHEAD. ) ;
#35 = PERSON_AND_ORGANIZATION ( #9, #80 ) ;
#36 = DATE_AND_TIME ( #50, #67 ) ;
#37 = CC_DESIGN_PERSON_AND_ORGANIZATION_ASSIGNMENT ( #81, #149, ( #88 ) ) ;
#38 = PRODUCT_DEFINITION_SHAPE ( 'NONE', 'NONE',  #85 ) ;
#39 = DIRECTION ( 'NONE',  ( -4.391120273202897745E-30, 1.000000000000000000, -1.257674520083185143E-15 ) ) ;
#40 = EDGE_CURVE ( 'NONE', #144, #144, #57, .T. ) ;
#41 = DIRECTION ( 'NONE',  ( 1.000000000000000000, 0.0000000000000000000, 0.0000000000000000000 ) ) ;
#42 = FACE_BOUND ( 'NONE', #96, .T. ) ;
#43 = CLOSED_SHELL ( 'NONE', ( #98, #147, #101, #74 ) ) ;
#44 = EDGE_LOOP ( 'NONE', ( #163 ) ) ;
#45 = EDGE_LOOP ( 'NONE', ( #120 ) ) ;
#46 = APPROVAL ( #137, 'UNSPECIFIED' ) ;
#47 = ORIENTED_EDGE ( 'NONE', *, *, #115, .F. ) ;
#48 = CC_DESIGN_SECURITY_CLASSIFICATION ( #5, ( #109 ) ) ;
#49 = SHAPE_DEFINITION_REPRESENTATION ( #38, #159 ) ;
#50 = CALENDAR_DATE ( 2021, 6, 12 ) ;
#51 = APPROVAL_STATUS ( 'not_yet_approved' ) ;
#52 = CALENDAR_DATE ( 2021, 6, 12 ) ;
#53 = DESIGN_CONTEXT ( 'detailed design', #32, 'design' ) ;
#54 = DIRECTION ( 'NONE',  ( -3.491481338843133355E-15, -1.258343394431540947E-15, -1.000000000000000000 ) ) ;
#55 = VERTEX_POINT ( 'NONE', #65 ) ;
#56 = CARTESIAN_POINT ( 'NONE',  ( 1.047444401652957559E-15, 3.775030183294685752E-16, 0.3000000000000050404 ) ) ;
#57 = CIRCLE ( 'NONE', #113, 4.000000000000000000 ) ;
#58 = APPROVAL ( #51, 'UNSPECIFIED' ) ;
#59 = DATE_AND_TIME ( #61, #102 ) ;
#60 = COORDINATED_UNIVERSAL_TIME_OFFSET ( 1, 0, .AHEAD. ) ;
#61 = CALENDAR_DATE ( 2021, 6, 12 ) ;
#62 = COORDINATED_UNIVERSAL_TIME_OFFSET ( 1, 0, .AHEAD. ) ;
#63 = CIRCLE ( 'NONE', #141, 12.50000000000000000 ) ;
#64 = FACE_OUTER_BOUND ( 'NONE', #45, .T. ) ;
#65 = CARTESIAN_POINT ( 'NONE',  ( 1.047444401652939809E-15, 12.50000000000000000, 0.2999999999999999889 ) ) ;
#66 = CC_DESIGN_PERSON_AND_ORGANIZATION_ASSIGNMENT ( #166, #21, ( #109 ) ) ;
#67 = LOCAL_TIME ( 13, 58, 33.00000000000000000, #60 ) ;
#68 = EDGE_LOOP ( 'NONE', ( #108 ) ) ;
#69 = CALENDAR_DATE ( 2021, 6, 12 ) ;
#70 = APPLICATION_PROTOCOL_DEFINITION ( 'international standard', 'config_control_design', 1994, #32 ) ;
#71 = CC_DESIGN_DATE_AND_TIME_ASSIGNMENT ( #19, #86, ( #85 ) ) ;
#72 = APPROVAL_DATE_TIME ( #36, #46 ) ;
#73 = CIRCLE ( 'NONE', #151, 4.000000000000000000 ) ;
#74 = ADVANCED_FACE ( 'NONE', ( #82, #28 ), #105, .F. ) ;
#75 = DIRECTION ( 'NONE',  ( 0.0000000000000000000, 0.0000000000000000000, 1.000000000000000000 ) ) ;
#76 = VERTEX_POINT ( 'NONE', #77 ) ;
#77 = CARTESIAN_POINT ( 'NONE',  ( 0.0000000000000000000, 4.000000000000000000, 0.0000000000000000000 ) ) ;
#78 = FACE_OUTER_BOUND ( 'NONE', #2, .T. ) ;
#79 = EDGE_LOOP ( 'NONE', ( #47 ) ) ;
#80 = ORGANIZATION ( 'UNSPECIFIED', 'UNSPECIFIED', '' ) ;
#81 = PERSON_AND_ORGANIZATION ( #9, #80 ) ;
#82 = FACE_OUTER_BOUND ( 'NONE', #44, .T. ) ;
#83 = AXIS2_PLACEMENT_3D ( 'NONE', #130, #15, #106 ) ;
#84 = PERSON_AND_ORGANIZATION ( #9, #80 ) ;
#85 = PRODUCT_DEFINITION ( 'UNKNOWN', '', #109, #53 ) ;
#86 = DATE_TIME_ROLE ( 'creation_date' ) ;
#87 = PERSON_AND_ORGANIZATION_ROLE ( 'creator' ) ;
#88 = PRODUCT ( '2421', '2421', '', ( #158 ) ) ;
#89 = FACE_OUTER_BOUND ( 'NONE', #79, .T. ) ;
#90 = APPROVAL_PERSON_ORGANIZATION ( #35, #152, #11 ) ;
#91 = PLANE ( 'NONE',  #83 ) ;
#92 = APPLICATION_PROTOCOL_DEFINITION ( 'international standard', 'config_control_design', 1994, #20 ) ;
#93 = DIRECTION ( 'NONE',  ( -4.393482479514249326E-30, 1.000000000000000000, -1.258343394431540947E-15 ) ) ;
#94 = PLANE ( 'NONE',  #135 ) ;
#95 = DIRECTION ( 'NONE',  ( -3.491481338843133355E-15, -1.258343394431540947E-15, -1.000000000000000000 ) ) ;
#96 = EDGE_LOOP ( 'NONE', ( #30 ) ) ;
#97 = CC_DESIGN_PERSON_AND_ORGANIZATION_ASSIGNMENT ( #112, #87, ( #85 ) ) ;
#98 = ADVANCED_FACE ( 'NONE', ( #29, #42 ), #91, .T. ) ;
#99 = APPROVAL_ROLE ( '' ) ;
#100 = APPROVAL_PERSON_ORGANIZATION ( #153, #46, #150 ) ;
#101 = ADVANCED_FACE ( 'NONE', ( #145, #89 ), #94, .T. ) ;
#102 = LOCAL_TIME ( 13, 58, 33.00000000000000000, #34 ) ;
#103 = DIRECTION ( 'NONE',  ( -3.491481338843133355E-15, -1.258343394431540947E-15, -1.000000000000000000 ) ) ;
#104 = UNCERTAINTY_MEASURE_WITH_UNIT (LENGTH_MEASURE( 1.000000000000000082E-05 ), #107, 'distance_accuracy_value', 'NONE');
#105 = CYLINDRICAL_SURFACE ( 'NONE', #17, 4.000000000000000000 ) ;
#106 = DIRECTION ( 'NONE',  ( -4.393482479514249326E-30, 1.000000000000000000, -1.258343394431540947E-15 ) ) ;
#107 =( LENGTH_UNIT ( ) NAMED_UNIT ( * ) SI_UNIT ( .MILLI., .METRE. ) );
#108 = ORIENTED_EDGE ( 'NONE', *, *, #40, .T. ) ;
#109 = PRODUCT_DEFINITION_FORMATION_WITH_SPECIFIED_SOURCE ( 'ANY', '', #88, .NOT_KNOWN. ) ;
#110 = AXIS2_PLACEMENT_3D ( 'NONE', #154, #75, #41 ) ;
#111 = COORDINATED_UNIVERSAL_TIME_OFFSET ( 1, 0, .AHEAD. ) ;
#112 = PERSON_AND_ORGANIZATION ( #9, #80 ) ;
#113 = AXIS2_PLACEMENT_3D ( 'NONE', #56, #95, #31 ) ;
#114 = DATE_TIME_ROLE ( 'classification_date' ) ;
#115 = EDGE_CURVE ( 'NONE', #55, #55, #63, .T. ) ;
#116 = CARTESIAN_POINT ( 'NONE',  ( 0.0000000000000000000, 12.50000000000000000, 0.0000000000000000000 ) ) ;
#117 = LOCAL_TIME ( 13, 58, 33.00000000000000000, #111 ) ;
#118 = DIRECTION ( 'NONE',  ( -4.393482479514249326E-30, 1.000000000000000000, -1.258343394431540947E-15 ) ) ;
#119 = DIRECTION ( 'NONE',  ( 4.393482479514249326E-30, -1.000000000000000000, 1.258343394431540947E-15 ) ) ;
#120 = ORIENTED_EDGE ( 'NONE', *, *, #161, .F. ) ;
#121 = PRODUCT_RELATED_PRODUCT_CATEGORY ( 'detail', '', ( #88 ) ) ;
#122 = EDGE_LOOP ( 'NONE', ( #134 ) ) ;
#123 = DATE_AND_TIME ( #52, #1 ) ;
#124 = DATE_AND_TIME ( #69, #13 ) ;
#125 = APPROVAL_STATUS ( 'not_yet_approved' ) ;
#126 = CIRCLE ( 'NONE', #148, 12.50000000000000000 ) ;
#127 = CARTESIAN_POINT ( 'NONE',  ( 5.491853099392812078E-29, 1.979285122886865884E-29, 1.572929243039426243E-14 ) ) ;
#128 = VERTEX_POINT ( 'NONE', #116 ) ;
#129 = CARTESIAN_POINT ( 'NONE',  ( 0.0000000000000000000, 0.0000000000000000000, 0.0000000000000000000 ) ) ;
#130 = CARTESIAN_POINT ( 'NONE',  ( 1.867230053793556174E-29, 4.000000000000000000, 5.347959426334049320E-15 ) ) ;
#131 =( NAMED_UNIT ( * ) SI_UNIT ( $, .STERADIAN. ) SOLID_ANGLE_UNIT ( ) );
#132 = ORIENTED_EDGE ( 'NONE', *, *, #115, .T. ) ;
#133 = CC_DESIGN_APPROVAL ( #46, ( #109 ) ) ;
#134 = ORIENTED_EDGE ( 'NONE', *, *, #40, .F. ) ;
#135 = AXIS2_PLACEMENT_3D ( 'NONE', #143, #12, #119 ) ;
#136 = PERSON_AND_ORGANIZATION_ROLE ( 'classification_officer' ) ;
#137 = APPROVAL_STATUS ( 'not_yet_approved' ) ;
#138 = SECURITY_CLASSIFICATION_LEVEL ( 'unclassified' ) ;
#139 = PERSON_AND_ORGANIZATION_ROLE ( 'creator' ) ;
#140 = CC_DESIGN_DATE_AND_TIME_ASSIGNMENT ( #124, #114, ( #5 ) ) ;
#141 = AXIS2_PLACEMENT_3D ( 'NONE', #142, #26, #39 ) ;
#142 = CARTESIAN_POINT ( 'NONE',  ( 1.047444401652994832E-15, 3.775030183294820352E-16, 0.3000000000000156986 ) ) ;
#143 = CARTESIAN_POINT ( 'NONE',  ( 1.047444401652958545E-15, 4.000000000000000000, 0.3000000000000053180 ) ) ;
#144 = VERTEX_POINT ( 'NONE', #16 ) ;
#145 = FACE_BOUND ( 'NONE', #68, .T. ) ;
#146 = CC_DESIGN_APPROVAL ( #58, ( #85 ) ) ;
#147 = ADVANCED_FACE ( 'NONE', ( #78, #64 ), #24, .T. ) ;
#148 = AXIS2_PLACEMENT_3D ( 'NONE', #127, #103, #93 ) ;
#149 = PERSON_AND_ORGANIZATION_ROLE ( 'design_owner' ) ;
#150 = APPROVAL_ROLE ( '' ) ;
#151 = AXIS2_PLACEMENT_3D ( 'NONE', #33, #3, #162 ) ;
#152 = APPROVAL ( #125, 'UNSPECIFIED' ) ;
#153 = PERSON_AND_ORGANIZATION ( #9, #80 ) ;
#154 = CARTESIAN_POINT ( 'NONE',  ( 0.0000000000000000000, 0.0000000000000000000, 0.0000000000000000000 ) ) ;
#155 = DIRECTION ( 'NONE',  ( -4.393482479514249326E-30, 1.000000000000000000, -1.258343394431540947E-15 ) ) ;
#156 = AXIS2_PLACEMENT_3D ( 'NONE', #129, #25, #118 ) ;
#157 =( NAMED_UNIT ( * ) PLANE_ANGLE_UNIT ( ) SI_UNIT ( $, .RADIAN. ) );
#158 = MECHANICAL_CONTEXT ( 'NONE', #20, 'mechanical' ) ;
#159 = ADVANCED_BREP_SHAPE_REPRESENTATION ( '2421', ( #4, #110 ), #23 ) ;
#160 = ORIENTED_EDGE ( 'NONE', *, *, #161, .T. ) ;
#161 = EDGE_CURVE ( 'NONE', #128, #128, #126, .T. ) ;
#162 = DIRECTION ( 'NONE',  ( -4.393482479514249326E-30, 1.000000000000000000, -1.258343394431540947E-15 ) ) ;
#163 = ORIENTED_EDGE ( 'NONE', *, *, #22, .T. ) ;
#164 = COORDINATED_UNIVERSAL_TIME_OFFSET ( 1, 0, .AHEAD. ) ;
#165 = APPROVAL_DATE_TIME ( #59, #58 ) ;
#166 = PERSON_AND_ORGANIZATION ( #9, #80 ) ;
#167 = CALENDAR_DATE ( 2021, 6, 12 ) ;
#168 = CC_DESIGN_PERSON_AND_ORGANIZATION_ASSIGNMENT ( #84, #136, ( #5 ) ) ;
#169 = CARTESIAN_POINT ( 'NONE',  ( 0.0000000000000000000, 0.0000000000000000000, 0.0000000000000000000 ) ) ;
ENDSEC;
END-ISO-10303-21;
