ISO-10303-21;
HEADER;
FILE_DESCRIPTION (( 'STEP AP203' ),
    '1' );
FILE_NAME ('24182.step',
    '2021-10-07T13:46:29',
    ( '' ),
    ( '' ),
    'SwSTEP 2.0',
    'SolidWorks 2019',
    '' );
FILE_SCHEMA (( 'CONFIG_CONTROL_DESIGN' ));
ENDSEC;

DATA;
#1 = PLANE ( 'NONE',  #117 ) ;
#2 = PERSON_AND_ORGANIZATION_ROLE ( 'creator' ) ;
#3 = PLANE ( 'NONE',  #181 ) ;
#4 = EDGE_LOOP ( 'NONE', ( #210 ) ) ;
#5 = PERSON_AND_ORGANIZATION ( #197, #81 ) ;
#6 = CLOSED_SHELL ( 'NONE', ( #85, #30, #56, #75, #102 ) ) ;
#7 = ORIENTED_EDGE ( 'NONE', *, *, #218, .F. ) ;
#8 = PERSON_AND_ORGANIZATION_ROLE ( 'creator' ) ;
#9 = DATE_AND_TIME ( #124, #165 ) ;
#10 = VERTEX_POINT ( 'NONE', #103 ) ;
#11 = DIRECTION ( 'NONE',  ( 0.0000000000000000000, 0.0000000000000000000, 1.000000000000000000 ) ) ;
#12 = FACE_OUTER_BOUND ( 'NONE', #171, .T. ) ;
#13 = AXIS2_PLACEMENT_3D ( 'NONE', #89, #63, #130 ) ;
#14 = APPROVAL_PERSON_ORGANIZATION ( #189, #200, #90 ) ;
#15 = CC_DESIGN_PERSON_AND_ORGANIZATION_ASSIGNMENT ( #212, #2, ( #27 ) ) ;
#16 = CIRCLE ( 'NONE', #145, 0.4499999999999990119 ) ;
#17 = DIRECTION ( 'NONE',  ( -4.275831445896958607E-31, -1.000000000000000000, -1.224646799147353207E-16 ) ) ;
#18 = CYLINDRICAL_SURFACE ( 'NONE', #21, 0.4499999999999984568 ) ;
#19 = COORDINATED_UNIVERSAL_TIME_OFFSET ( 1, 0, .AHEAD. ) ;
#20 = CALENDAR_DATE ( 2021, 7, 10 ) ;
#21 = AXIS2_PLACEMENT_3D ( 'NONE', #120, #41, #136 ) ;
#22 = APPROVAL_PERSON_ORGANIZATION ( #5, #100, #144 ) ;
#23 = PERSON_AND_ORGANIZATION_ROLE ( 'design_supplier' ) ;
#24 = PRODUCT_RELATED_PRODUCT_CATEGORY ( 'detail', '', ( #187 ) ) ;
#25 = CARTESIAN_POINT ( 'NONE',  ( 2.478951750578624051E-14, 0.4499999999999981237, 7.099999999999998757 ) ) ;
#26 = CARTESIAN_POINT ( 'NONE',  ( 2.478951750578624051E-14, -8.694992273946205774E-16, 7.099999999999998757 ) ) ;
#27 = PRODUCT_DEFINITION ( 'UNKNOWN', '', #146, #204 ) ;
#28 = DIRECTION ( 'NONE',  ( 0.0000000000000000000, 1.000000000000000000, 0.0000000000000000000 ) ) ;
#29 = DIRECTION ( 'NONE',  ( -3.491481338843133355E-15, 1.224646799147353207E-16, -1.000000000000000000 ) ) ;
#30 = ADVANCED_FACE ( 'NONE', ( #99, #177 ), #178, .T. ) ;
#31 = CLOSED_SHELL ( 'NONE', ( #133, #182, #175 ) ) ;
#32 = EDGE_CURVE ( 'NONE', #143, #143, #203, .T. ) ;
#33 = CARTESIAN_POINT ( 'NONE',  ( 0.0000000000000000000, 0.0000000000000000000, 0.0000000000000000000 ) ) ;
#34 = VERTEX_POINT ( 'NONE', #25 ) ;
#35 = CIRCLE ( 'NONE', #93, 0.4499999999999978462 ) ;
#36 = LOCAL_TIME ( 15, 46, 29.00000000000000000, #192 ) ;
#37 = ORIENTED_EDGE ( 'NONE', *, *, #32, .F. ) ;
#38 = PERSON_AND_ORGANIZATION ( #197, #81 ) ;
#39 = PERSON_AND_ORGANIZATION ( #197, #81 ) ;
#40 = PERSON_AND_ORGANIZATION_ROLE ( 'classification_officer' ) ;
#41 = DIRECTION ( 'NONE',  ( -3.491481338843133355E-15, 1.224646799147353207E-16, -1.000000000000000000 ) ) ;
#42 = PRODUCT_DEFINITION_SHAPE ( 'NONE', 'NONE',  #27 ) ;
#43 = CARTESIAN_POINT ( 'NONE',  ( 2.478951750578624051E-14, 1.095956371240275332E-31, 7.099999999999998757 ) ) ;
#44 = FACE_OUTER_BOUND ( 'NONE', #125, .T. ) ;
#45 = DIRECTION ( 'NONE',  ( 4.279844320860545040E-31, 1.000000000000000000, 1.204669080539455260E-16 ) ) ;
#46 = CIRCLE ( 'NONE', #58, 0.7499999999999973355 ) ;
#47 = DIRECTION ( 'NONE',  ( 0.0000000000000000000, 1.000000000000000000, 0.0000000000000000000 ) ) ;
#48 = DIRECTION ( 'NONE',  ( 4.275831445896958607E-31, 1.000000000000000000, 1.224646799147353207E-16 ) ) ;
#49 = EDGE_LOOP ( 'NONE', ( #7 ) ) ;
#50 = DATE_TIME_ROLE ( 'classification_date' ) ;
#51 =( GEOMETRIC_REPRESENTATION_CONTEXT ( 3 ) GLOBAL_UNCERTAINTY_ASSIGNED_CONTEXT ( ( #118 ) ) GLOBAL_UNIT_ASSIGNED_CONTEXT ( ( #105, #91, #193 ) ) REPRESENTATION_CONTEXT ( 'NONE', 'WORKASPACE' ) );
#52 = EDGE_LOOP ( 'NONE', ( #169 ) ) ;
#53 = APPROVAL_DATE_TIME ( #111, #200 ) ;
#54 = SHAPE_DEFINITION_REPRESENTATION ( #42, #67 ) ;
#55 = CC_DESIGN_DATE_AND_TIME_ASSIGNMENT ( #9, #128, ( #27 ) ) ;
#56 = ADVANCED_FACE ( 'NONE', ( #44, #12 ), #164, .T. ) ;
#57 = CARTESIAN_POINT ( 'NONE',  ( 1.047444401652940007E-13, -3.673940397442059178E-15, 30.00000000000000000 ) ) ;
#58 = AXIS2_PLACEMENT_3D ( 'NONE', #61, #188, #153 ) ;
#59 = CC_DESIGN_SECURITY_CLASSIFICATION ( #94, ( #146 ) ) ;
#60 = DATE_AND_TIME ( #20, #173 ) ;
#61 = CARTESIAN_POINT ( 'NONE',  ( 2.660374442755273364E-14, -9.331337417181155396E-16, 7.619615242270667110 ) ) ;
#62 = CARTESIAN_POINT ( 'NONE',  ( 2.660374442755273364E-14, -9.331337417181155396E-16, 7.619615242270667110 ) ) ;
#63 = DIRECTION ( 'NONE',  ( 3.491481338843133355E-15, -1.224646799147353207E-16, 1.000000000000000000 ) ) ;
#64 = DIRECTION ( 'NONE',  ( 3.491481338843133355E-15, -1.224646799147353207E-16, 1.000000000000000000 ) ) ;
#65 = CONICAL_SURFACE ( 'NONE', #219, 0.5500000000000001554, 0.7853981633974510546 ) ;
#66 = EDGE_CURVE ( 'NONE', #186, #186, #35, .T. ) ;
#67 = ADVANCED_BREP_SHAPE_REPRESENTATION ( '24182', ( #77, #150, #132 ), #51 ) ;
#68 = DIRECTION ( 'NONE',  ( -3.491481338843133355E-15, 1.224646799147353207E-16, -1.000000000000000000 ) ) ;
#69 = FACE_OUTER_BOUND ( 'NONE', #49, .T. ) ;
#70 = ORIENTED_EDGE ( 'NONE', *, *, #198, .T. ) ;
#71 = APPROVAL_STATUS ( 'not_yet_approved' ) ;
#72 = CARTESIAN_POINT ( 'NONE',  ( 1.040461438975253740E-13, 0.7499999999999963363, 29.80000000000000071 ) ) ;
#73 = ORIENTED_EDGE ( 'NONE', *, *, #220, .T. ) ;
#74 = ORIENTED_EDGE ( 'NONE', *, *, #32, .T. ) ;
#75 = ADVANCED_FACE ( 'NONE', ( #202, #116 ), #65, .T. ) ;
#76 = COORDINATED_UNIVERSAL_TIME_OFFSET ( 1, 0, .AHEAD. ) ;
#77 = MANIFOLD_SOLID_BREP ( 'Corps-Déplacer/Copier1[1]', #6 ) ;
#78 = ORIENTED_EDGE ( 'NONE', *, *, #218, .T. ) ;
#79 = APPROVAL_DATE_TIME ( #211, #100 ) ;
#80 = FACE_OUTER_BOUND ( 'NONE', #4, .T. ) ;
#81 = ORGANIZATION ( 'UNSPECIFIED', 'UNSPECIFIED', '' ) ;
#82 = DIRECTION ( 'NONE',  ( 3.491481338843133355E-15, -1.224646799147353207E-16, 1.000000000000000000 ) ) ;
#83 = APPLICATION_PROTOCOL_DEFINITION ( 'international standard', 'config_control_design', 1994, #121 ) ;
#84 = CC_DESIGN_PERSON_AND_ORGANIZATION_ASSIGNMENT ( #39, #23, ( #146 ) ) ;
#85 = ADVANCED_FACE ( 'NONE', ( #223 ), #1, .F. ) ;
#86 = DIRECTION ( 'NONE',  ( -3.491481338843133355E-15, 1.224646799147353207E-16, -1.000000000000000000 ) ) ;
#87 = FACE_OUTER_BOUND ( 'NONE', #155, .T. ) ;
#88 = AXIS2_PLACEMENT_3D ( 'NONE', #57, #68, #47 ) ;
#89 = CARTESIAN_POINT ( 'NONE',  ( 9.440521373612127787E-16, -3.311289152216116045E-17, 0.2703872785624037989 ) ) ;
#90 = APPROVAL_ROLE ( '' ) ;
#91 =( NAMED_UNIT ( * ) PLANE_ANGLE_UNIT ( ) SI_UNIT ( $, .RADIAN. ) );
#92 = DATE_AND_TIME ( #172, #36 ) ;
#93 = AXIS2_PLACEMENT_3D ( 'NONE', #152, #151, #45 ) ;
#94 = SECURITY_CLASSIFICATION ( '', '', #138 ) ;
#95 = EDGE_CURVE ( 'NONE', #34, #34, #162, .T. ) ;
#96 = CC_DESIGN_DATE_AND_TIME_ASSIGNMENT ( #92, #50, ( #94 ) ) ;
#97 = COORDINATED_UNIVERSAL_TIME_OFFSET ( 1, 0, .AHEAD. ) ;
#98 = CARTESIAN_POINT ( 'NONE',  ( 2.478951750578624051E-14, 1.095956371240275332E-31, 7.099999999999998757 ) ) ;
#99 = FACE_BOUND ( 'NONE', #190, .T. ) ;
#100 = APPROVAL ( #71, 'UNSPECIFIED' ) ;
#101 = CC_DESIGN_APPROVAL ( #100, ( #27 ) ) ;
#102 = ADVANCED_FACE ( 'NONE', ( #69 ), #3, .F. ) ;
#103 = CARTESIAN_POINT ( 'NONE',  ( 1.047444401652940007E-13, 0.5499999999999964917, 30.00000000000000000 ) ) ;
#104 = ORIENTED_EDGE ( 'NONE', *, *, #220, .F. ) ;
#105 =( LENGTH_UNIT ( ) NAMED_UNIT ( * ) SI_UNIT ( .MILLI., .METRE. ) );
#106 = ORIENTED_EDGE ( 'NONE', *, *, #66, .F. ) ;
#107 = CC_DESIGN_PERSON_AND_ORGANIZATION_ASSIGNMENT ( #176, #127, ( #187 ) ) ;
#108 = EDGE_LOOP ( 'NONE', ( #37 ) ) ;
#109 = EDGE_LOOP ( 'NONE', ( #73 ) ) ;
#110 = CARTESIAN_POINT ( 'NONE',  ( 2.478951750578624051E-14, 0.4499999999999981237, 7.099999999999998757 ) ) ;
#111 = DATE_AND_TIME ( #160, #191 ) ;
#112 = DIRECTION ( 'NONE',  ( -3.491481338843133355E-15, 1.224646799147353207E-16, -1.000000000000000000 ) ) ;
#113 = CARTESIAN_POINT ( 'NONE',  ( 1.047444401652940007E-13, 4.124339402320053683E-33, 30.00000000000000000 ) ) ;
#114 = CARTESIAN_POINT ( 'NONE',  ( 1.040461438975253740E-13, -3.649447461459112464E-15, 29.80000000000000071 ) ) ;
#115 = AXIS2_PLACEMENT_3D ( 'NONE', #98, #135, #179 ) ;
#116 = FACE_BOUND ( 'NONE', #141, .T. ) ;
#117 = AXIS2_PLACEMENT_3D ( 'NONE', #43, #82, #17 ) ;
#118 = UNCERTAINTY_MEASURE_WITH_UNIT (LENGTH_MEASURE( 1.000000000000000082E-05 ), #105, 'distance_accuracy_value', 'NONE');
#119 = CC_DESIGN_PERSON_AND_ORGANIZATION_ASSIGNMENT ( #38, #8, ( #146 ) ) ;
#120 = CARTESIAN_POINT ( 'NONE',  ( 0.0000000000000000000, 0.0000000000000000000, 0.0000000000000000000 ) ) ;
#121 = APPLICATION_CONTEXT ( 'configuration controlled 3d designs of mechanical parts and assemblies' ) ;
#122 = CONICAL_SURFACE ( 'NONE', #13, 0.4499999999999978462, 1.029744258676649649 ) ;
#123 = LOCAL_TIME ( 15, 46, 29.00000000000000000, #209 ) ;
#124 = CALENDAR_DATE ( 2021, 7, 10 ) ;
#125 = EDGE_LOOP ( 'NONE', ( #137 ) ) ;
#126 = ORIENTED_EDGE ( 'NONE', *, *, #95, .T. ) ;
#127 = PERSON_AND_ORGANIZATION_ROLE ( 'design_owner' ) ;
#128 = DATE_TIME_ROLE ( 'creation_date' ) ;
#129 = APPROVAL_DATE_TIME ( #60, #159 ) ;
#130 = DIRECTION ( 'NONE',  ( -4.279844320860545040E-31, -1.000000000000000000, -1.204669080539455260E-16 ) ) ;
#131 = FACE_OUTER_BOUND ( 'NONE', #52, .T. ) ;
#132 = AXIS2_PLACEMENT_3D ( 'NONE', #163, #11, #156 ) ;
#133 = ADVANCED_FACE ( 'NONE', ( #80 ), #122, .T. ) ;
#134 = AXIS2_PLACEMENT_3D ( 'NONE', #33, #86, #185 ) ;
#135 = DIRECTION ( 'NONE',  ( 3.491481338843133355E-15, -1.224646799147353207E-16, 1.000000000000000000 ) ) ;
#136 = DIRECTION ( 'NONE',  ( 4.275831445896958607E-31, 1.000000000000000000, 1.224646799147353207E-16 ) ) ;
#137 = ORIENTED_EDGE ( 'NONE', *, *, #198, .F. ) ;
#138 = SECURITY_CLASSIFICATION_LEVEL ( 'unclassified' ) ;
#139 = CC_DESIGN_APPROVAL ( #200, ( #94 ) ) ;
#140 = PERSON_AND_ORGANIZATION ( #197, #81 ) ;
#141 = EDGE_LOOP ( 'NONE', ( #78 ) ) ;
#142 = MECHANICAL_CONTEXT ( 'NONE', #121, 'mechanical' ) ;
#143 = VERTEX_POINT ( 'NONE', #72 ) ;
#144 = APPROVAL_ROLE ( '' ) ;
#145 = AXIS2_PLACEMENT_3D ( 'NONE', #26, #112, #147 ) ;
#146 = PRODUCT_DEFINITION_FORMATION_WITH_SPECIFIED_SOURCE ( 'ANY', '', #187, .NOT_KNOWN. ) ;
#147 = DIRECTION ( 'NONE',  ( 0.0000000000000000000, 1.000000000000000000, 0.0000000000000000000 ) ) ;
#148 = APPLICATION_CONTEXT ( 'configuration controlled 3d designs of mechanical parts and assemblies' ) ;
#149 = DIRECTION ( 'NONE',  ( -3.491481338843133355E-15, 1.224646799147353207E-16, -1.000000000000000000 ) ) ;
#150 = MANIFOLD_SOLID_BREP ( 'Corps-Déplacer/Copier1[2]', #31 ) ;
#151 = DIRECTION ( 'NONE',  ( -3.491481338843133355E-15, 1.224646799147353207E-16, -1.000000000000000000 ) ) ;
#152 = CARTESIAN_POINT ( 'NONE',  ( 9.440521373612127787E-16, -3.311289152216116045E-17, 0.2703872785624037989 ) ) ;
#153 = DIRECTION ( 'NONE',  ( 0.0000000000000000000, 1.000000000000000000, 0.0000000000000000000 ) ) ;
#154 = CARTESIAN_POINT ( 'NONE',  ( 9.440521373612129760E-16, 0.4499999999999978462, 0.2703872785624038544 ) ) ;
#155 = EDGE_LOOP ( 'NONE', ( #106 ) ) ;
#156 = DIRECTION ( 'NONE',  ( 1.000000000000000000, 0.0000000000000000000, 0.0000000000000000000 ) ) ;
#157 = AXIS2_PLACEMENT_3D ( 'NONE', #114, #180, #28 ) ;
#158 = APPLICATION_PROTOCOL_DEFINITION ( 'international standard', 'config_control_design', 1994, #148 ) ;
#159 = APPROVAL ( #215, 'UNSPECIFIED' ) ;
#160 = CALENDAR_DATE ( 2021, 7, 10 ) ;
#161 = VERTEX_POINT ( 'NONE', #216 ) ;
#162 = CIRCLE ( 'NONE', #213, 0.4499999999999990119 ) ;
#163 = CARTESIAN_POINT ( 'NONE',  ( 0.0000000000000000000, 0.0000000000000000000, 0.0000000000000000000 ) ) ;
#164 = CYLINDRICAL_SURFACE ( 'NONE', #134, 0.7499999999999986677 ) ;
#165 = LOCAL_TIME ( 15, 46, 29.00000000000000000, #76 ) ;
#166 = AXIS2_PLACEMENT_3D ( 'NONE', #62, #64, #199 ) ;
#167 = FACE_OUTER_BOUND ( 'NONE', #168, .T. ) ;
#168 = EDGE_LOOP ( 'NONE', ( #126 ) ) ;
#169 = ORIENTED_EDGE ( 'NONE', *, *, #95, .F. ) ;
#170 = CALENDAR_DATE ( 2021, 7, 10 ) ;
#171 = EDGE_LOOP ( 'NONE', ( #74 ) ) ;
#172 = CALENDAR_DATE ( 2021, 7, 10 ) ;
#173 = LOCAL_TIME ( 15, 46, 29.00000000000000000, #19 ) ;
#174 = APPROVAL_ROLE ( '' ) ;
#175 = ADVANCED_FACE ( 'NONE', ( #131 ), #195, .T. ) ;
#176 = PERSON_AND_ORGANIZATION ( #197, #81 ) ;
#177 = FACE_OUTER_BOUND ( 'NONE', #214, .T. ) ;
#178 = CONICAL_SURFACE ( 'NONE', #166, 0.7499999999999973355, 0.5235987755982922653 ) ;
#179 = DIRECTION ( 'NONE',  ( -4.275831445896958607E-31, -1.000000000000000000, -1.224646799147353207E-16 ) ) ;
#180 = DIRECTION ( 'NONE',  ( -3.491481338843133355E-15, 1.224646799147353207E-16, -1.000000000000000000 ) ) ;
#181 = AXIS2_PLACEMENT_3D ( 'NONE', #113, #205, #48 ) ;
#182 = ADVANCED_FACE ( 'NONE', ( #87, #167 ), #18, .T. ) ;
#183 = CARTESIAN_POINT ( 'NONE',  ( 1.047444401652940007E-13, -3.673940397442059178E-15, 30.00000000000000000 ) ) ;
#184 = DIRECTION ( 'NONE',  ( 0.0000000000000000000, 1.000000000000000000, 0.0000000000000000000 ) ) ;
#185 = DIRECTION ( 'NONE',  ( 4.275831445896959482E-31, 1.000000000000000000, 1.224646799147353207E-16 ) ) ;
#186 = VERTEX_POINT ( 'NONE', #154 ) ;
#187 = PRODUCT ( '24182', '24182', '', ( #142 ) ) ;
#188 = DIRECTION ( 'NONE',  ( -3.491481338843133355E-15, 1.224646799147353207E-16, -1.000000000000000000 ) ) ;
#189 = PERSON_AND_ORGANIZATION ( #197, #81 ) ;
#190 = EDGE_LOOP ( 'NONE', ( #104 ) ) ;
#191 = LOCAL_TIME ( 15, 46, 29.00000000000000000, #97 ) ;
#192 = COORDINATED_UNIVERSAL_TIME_OFFSET ( 1, 0, .AHEAD. ) ;
#193 =( NAMED_UNIT ( * ) SI_UNIT ( $, .STERADIAN. ) SOLID_ANGLE_UNIT ( ) );
#194 = PERSON_AND_ORGANIZATION ( #197, #81 ) ;
#195 = PLANE ( 'NONE',  #115 ) ;
#196 = CARTESIAN_POINT ( 'NONE',  ( 2.478951750578624051E-14, -8.694992273946205774E-16, 7.099999999999998757 ) ) ;
#197 = PERSON ( 'UNSPECIFIED', 'UNSPECIFIED', 'UNSPECIFIED', ('UNSPECIFIED'), ('UNSPECIFIED'), ('UNSPECIFIED') ) ;
#198 = EDGE_CURVE ( 'NONE', #161, #161, #46, .T. ) ;
#199 = DIRECTION ( 'NONE',  ( 0.0000000000000000000, -1.000000000000000000, 0.0000000000000000000 ) ) ;
#200 = APPROVAL ( #207, 'UNSPECIFIED' ) ;
#201 = CIRCLE ( 'NONE', #88, 0.5500000000000001554 ) ;
#202 = FACE_OUTER_BOUND ( 'NONE', #108, .T. ) ;
#203 = CIRCLE ( 'NONE', #157, 0.7500000000000000000 ) ;
#204 = DESIGN_CONTEXT ( 'detailed design', #148, 'design' ) ;
#205 = DIRECTION ( 'NONE',  ( -3.491481338843133355E-15, 1.224646799147353207E-16, -1.000000000000000000 ) ) ;
#206 = VERTEX_POINT ( 'NONE', #110 ) ;
#207 = APPROVAL_STATUS ( 'not_yet_approved' ) ;
#208 = APPROVAL_PERSON_ORGANIZATION ( #140, #159, #174 ) ;
#209 = COORDINATED_UNIVERSAL_TIME_OFFSET ( 1, 0, .AHEAD. ) ;
#210 = ORIENTED_EDGE ( 'NONE', *, *, #66, .T. ) ;
#211 = DATE_AND_TIME ( #170, #123 ) ;
#212 = PERSON_AND_ORGANIZATION ( #197, #81 ) ;
#213 = AXIS2_PLACEMENT_3D ( 'NONE', #196, #149, #217 ) ;
#214 = EDGE_LOOP ( 'NONE', ( #70 ) ) ;
#215 = APPROVAL_STATUS ( 'not_yet_approved' ) ;
#216 = CARTESIAN_POINT ( 'NONE',  ( 2.660374442755273364E-14, 0.7499999999999963363, 7.619615242270667110 ) ) ;
#217 = DIRECTION ( 'NONE',  ( 0.0000000000000000000, 1.000000000000000000, 0.0000000000000000000 ) ) ;
#218 = EDGE_CURVE ( 'NONE', #10, #10, #201, .T. ) ;
#219 = AXIS2_PLACEMENT_3D ( 'NONE', #183, #29, #184 ) ;
#220 = EDGE_CURVE ( 'NONE', #206, #206, #16, .T. ) ;
#221 = CC_DESIGN_APPROVAL ( #159, ( #146 ) ) ;
#222 = CC_DESIGN_PERSON_AND_ORGANIZATION_ASSIGNMENT ( #194, #40, ( #94 ) ) ;
#223 = FACE_OUTER_BOUND ( 'NONE', #109, .T. ) ;
ENDSEC;
END-ISO-10303-21;
