ISO-10303-21;
HEADER;
FILE_DESCRIPTION (( 'STEP AP203' ),
    '1' );
FILE_NAME ('24084.step',
    '2021-12-06T12:58:32',
    ( '' ),
    ( '' ),
    'SwSTEP 2.0',
    'SolidWorks 2019',
    '' );
FILE_SCHEMA (( 'CONFIG_CONTROL_DESIGN' ));
ENDSEC;

DATA;
#1 = UNCERTAINTY_MEASURE_WITH_UNIT (LENGTH_MEASURE( 1.000000000000000082E-05 ), #125, 'distance_accuracy_value', 'NONE');
#2 = PERSON_AND_ORGANIZATION_ROLE ( 'design_owner' ) ;
#3 = VERTEX_POINT ( 'NONE', #55 ) ;
#4 = DIRECTION ( 'NONE',  ( 1.000000000000000000, 0.0000000000000000000, 0.0000000000000000000 ) ) ;
#5 = SECURITY_CLASSIFICATION_LEVEL ( 'unclassified' ) ;
#6 = EDGE_LOOP ( 'NONE', ( #137 ) ) ;
#7 = EDGE_LOOP ( 'NONE', ( #30 ) ) ;
#8 = CALENDAR_DATE ( 2021, 6, 12 ) ;
#9 = CARTESIAN_POINT ( 'NONE',  ( 3.295111859635688816E-29, 1.781356610598180389E-29, 9.437575458236561243E-15 ) ) ;
#10 = EDGE_CURVE ( 'NONE', #29, #29, #123, .T. ) ;
#11 = PERSON_AND_ORGANIZATION ( #67, #144 ) ;
#12 = CC_DESIGN_APPROVAL ( #64, ( #50 ) ) ;
#13 = CC_DESIGN_SECURITY_CLASSIFICATION ( #117, ( #50 ) ) ;
#14 = AXIS2_PLACEMENT_3D ( 'NONE', #44, #45, #97 ) ;
#15 = APPROVAL_PERSON_ORGANIZATION ( #11, #56, #127 ) ;
#16 = CALENDAR_DATE ( 2021, 6, 12 ) ;
#17 = ADVANCED_BREP_SHAPE_REPRESENTATION ( '24084', ( #71, #131 ), #89 ) ;
#18 = EDGE_CURVE ( 'NONE', #3, #3, #114, .T. ) ;
#19 = PERSON_AND_ORGANIZATION ( #67, #144 ) ;
#20 = LOCAL_TIME ( 13, 58, 32.00000000000000000, #166 ) ;
#21 = PERSON_AND_ORGANIZATION_ROLE ( 'creator' ) ;
#22 = DIRECTION ( 'NONE',  ( -3.491481338843133355E-15, -1.887515091647312012E-15, -1.000000000000000000 ) ) ;
#23 = CARTESIAN_POINT ( 'NONE',  ( 0.0000000000000000000, 20.00000000000000000, 0.0000000000000000000 ) ) ;
#24 = APPROVAL_STATUS ( 'not_yet_approved' ) ;
#25 = FACE_OUTER_BOUND ( 'NONE', #7, .T. ) ;
#26 = AXIS2_PLACEMENT_3D ( 'NONE', #150, #38, #32 ) ;
#27 = PERSON_AND_ORGANIZATION ( #67, #144 ) ;
#28 =( NAMED_UNIT ( * ) PLANE_ANGLE_UNIT ( ) SI_UNIT ( $, .RADIAN. ) );
#29 = VERTEX_POINT ( 'NONE', #75 ) ;
#30 = ORIENTED_EDGE ( 'NONE', *, *, #36, .T. ) ;
#31 = CARTESIAN_POINT ( 'NONE',  ( 1.318044743854275526E-28, 7.125426442392721554E-29, 3.775030183294624497E-14 ) ) ;
#32 = DIRECTION ( 'NONE',  ( -6.590223719271378193E-30, 1.000000000000000000, -1.887515091647312406E-15 ) ) ;
#33 = DIRECTION ( 'NONE',  ( -3.491481338843133355E-15, -1.887515091647312012E-15, -1.000000000000000000 ) ) ;
#34 = PRODUCT_DEFINITION ( 'UNKNOWN', '', #50, #100 ) ;
#35 = DIRECTION ( 'NONE',  ( -6.591495234665314707E-30, 1.000000000000000000, -1.887867032840384596E-15 ) ) ;
#36 = EDGE_CURVE ( 'NONE', #136, #136, #118, .T. ) ;
#37 = AXIS2_PLACEMENT_3D ( 'NONE', #94, #128, #35 ) ;
#38 = DIRECTION ( 'NONE',  ( -3.491481338843133355E-15, -1.887515091647312012E-15, -1.000000000000000000 ) ) ;
#39 = APPROVAL_STATUS ( 'not_yet_approved' ) ;
#40 = DIRECTION ( 'NONE',  ( -3.491481338843133355E-15, -1.887515091647312012E-15, -1.000000000000000000 ) ) ;
#41 = APPROVAL_PERSON_ORGANIZATION ( #27, #112, #103 ) ;
#42 = ORIENTED_EDGE ( 'NONE', *, *, #10, .F. ) ;
#43 = MECHANICAL_CONTEXT ( 'NONE', #49, 'mechanical' ) ;
#44 = CARTESIAN_POINT ( 'NONE',  ( 6.982962677686760735E-16, 5.000000000000000000, 0.2000000000000141387 ) ) ;
#45 = DIRECTION ( 'NONE',  ( 3.491481338843133355E-15, 1.887515091647312012E-15, 1.000000000000000000 ) ) ;
#46 = SHAPE_DEFINITION_REPRESENTATION ( #109, #17 ) ;
#47 = FACE_OUTER_BOUND ( 'NONE', #126, .T. ) ;
#48 = AXIS2_PLACEMENT_3D ( 'NONE', #165, #40, #153 ) ;
#49 = APPLICATION_CONTEXT ( 'configuration controlled 3d designs of mechanical parts and assemblies' ) ;
#50 = PRODUCT_DEFINITION_FORMATION_WITH_SPECIFIED_SOURCE ( 'ANY', '', #115, .NOT_KNOWN. ) ;
#51 = EDGE_CURVE ( 'NONE', #83, #83, #142, .T. ) ;
#52 = AXIS2_PLACEMENT_3D ( 'NONE', #167, #33, #140 ) ;
#53 = AXIS2_PLACEMENT_3D ( 'NONE', #9, #152, #151 ) ;
#54 = APPLICATION_PROTOCOL_DEFINITION ( 'international standard', 'config_control_design', 1994, #157 ) ;
#55 = CARTESIAN_POINT ( 'NONE',  ( 6.982962677686265724E-16, 20.00000000000000000, 0.1999999999999999833 ) ) ;
#56 = APPROVAL ( #24, 'UNSPECIFIED' ) ;
#57 = CYLINDRICAL_SURFACE ( 'NONE', #26, 5.000000000000000000 ) ;
#58 = COORDINATED_UNIVERSAL_TIME_OFFSET ( 1, 0, .AHEAD. ) ;
#59 =( NAMED_UNIT ( * ) SI_UNIT ( $, .STERADIAN. ) SOLID_ANGLE_UNIT ( ) );
#60 = LOCAL_TIME ( 13, 58, 32.00000000000000000, #58 ) ;
#61 = ORIENTED_EDGE ( 'NONE', *, *, #18, .T. ) ;
#62 = EDGE_LOOP ( 'NONE', ( #88 ) ) ;
#63 = PLANE ( 'NONE',  #14 ) ;
#64 = APPROVAL ( #68, 'UNSPECIFIED' ) ;
#65 = PERSON_AND_ORGANIZATION ( #67, #144 ) ;
#66 = AXIS2_PLACEMENT_3D ( 'NONE', #31, #93, #135 ) ;
#67 = PERSON ( 'UNSPECIFIED', 'UNSPECIFIED', 'UNSPECIFIED', ('UNSPECIFIED'), ('UNSPECIFIED'), ('UNSPECIFIED') ) ;
#68 = APPROVAL_STATUS ( 'not_yet_approved' ) ;
#69 = APPROVAL_PERSON_ORGANIZATION ( #19, #64, #148 ) ;
#70 = CALENDAR_DATE ( 2021, 6, 12 ) ;
#71 = MANIFOLD_SOLID_BREP ( 'Corps-Déplacer/Copier1', #111 ) ;
#72 = PERSON_AND_ORGANIZATION ( #67, #144 ) ;
#73 = FACE_OUTER_BOUND ( 'NONE', #6, .T. ) ;
#74 = ADVANCED_FACE ( 'NONE', ( #86, #77 ), #110, .T. ) ;
#75 = CARTESIAN_POINT ( 'NONE',  ( 6.982962677686266711E-16, 5.000000000000000000, 0.1999999999999999833 ) ) ;
#76 = EDGE_LOOP ( 'NONE', ( #61 ) ) ;
#77 = FACE_OUTER_BOUND ( 'NONE', #159, .T. ) ;
#78 = COORDINATED_UNIVERSAL_TIME_OFFSET ( 1, 0, .AHEAD. ) ;
#79 = CC_DESIGN_DATE_AND_TIME_ASSIGNMENT ( #98, #164, ( #117 ) ) ;
#80 = CC_DESIGN_APPROVAL ( #112, ( #34 ) ) ;
#81 = CC_DESIGN_DATE_AND_TIME_ASSIGNMENT ( #91, #84, ( #34 ) ) ;
#82 = APPLICATION_PROTOCOL_DEFINITION ( 'international standard', 'config_control_design', 1994, #49 ) ;
#83 = VERTEX_POINT ( 'NONE', #23 ) ;
#84 = DATE_TIME_ROLE ( 'creation_date' ) ;
#85 = ORIENTED_EDGE ( 'NONE', *, *, #36, .F. ) ;
#86 = FACE_OUTER_BOUND ( 'NONE', #76, .T. ) ;
#87 = CARTESIAN_POINT ( 'NONE',  ( 0.0000000000000000000, 0.0000000000000000000, 0.0000000000000000000 ) ) ;
#88 = ORIENTED_EDGE ( 'NONE', *, *, #51, .T. ) ;
#89 =( GEOMETRIC_REPRESENTATION_CONTEXT ( 3 ) GLOBAL_UNCERTAINTY_ASSIGNED_CONTEXT ( ( #1 ) ) GLOBAL_UNIT_ASSIGNED_CONTEXT ( ( #125, #28, #59 ) ) REPRESENTATION_CONTEXT ( 'NONE', 'WORKASPACE' ) );
#90 = FACE_BOUND ( 'NONE', #139, .T. ) ;
#91 = DATE_AND_TIME ( #16, #102 ) ;
#92 = COORDINATED_UNIVERSAL_TIME_OFFSET ( 1, 0, .AHEAD. ) ;
#93 = DIRECTION ( 'NONE',  ( -3.491481338843133355E-15, -1.887515091647312012E-15, -1.000000000000000000 ) ) ;
#94 = CARTESIAN_POINT ( 'NONE',  ( 6.982962677687584108E-16, 3.775030183295336562E-16, 0.2000000000000377309 ) ) ;
#95 = FACE_OUTER_BOUND ( 'NONE', #62, .T. ) ;
#96 = APPROVAL_DATE_TIME ( #169, #56 ) ;
#97 = DIRECTION ( 'NONE',  ( 6.590223719271376791E-30, -1.000000000000000000, 1.887515091647312012E-15 ) ) ;
#98 = DATE_AND_TIME ( #129, #20 ) ;
#99 = AXIS2_PLACEMENT_3D ( 'NONE', #130, #22, #163 ) ;
#100 = DESIGN_CONTEXT ( 'detailed design', #157, 'design' ) ;
#101 = CALENDAR_DATE ( 2021, 6, 12 ) ;
#102 = LOCAL_TIME ( 13, 58, 32.00000000000000000, #133 ) ;
#103 = APPROVAL_ROLE ( '' ) ;
#104 = DIRECTION ( 'NONE',  ( 0.0000000000000000000, 0.0000000000000000000, 1.000000000000000000 ) ) ;
#105 = EDGE_LOOP ( 'NONE', ( #85 ) ) ;
#106 = CC_DESIGN_PERSON_AND_ORGANIZATION_ASSIGNMENT ( #107, #154, ( #117 ) ) ;
#107 = PERSON_AND_ORGANIZATION ( #67, #144 ) ;
#108 = ORIENTED_EDGE ( 'NONE', *, *, #51, .F. ) ;
#109 = PRODUCT_DEFINITION_SHAPE ( 'NONE', 'NONE',  #34 ) ;
#110 = CYLINDRICAL_SURFACE ( 'NONE', #99, 20.00000000000000000 ) ;
#111 = CLOSED_SHELL ( 'NONE', ( #145, #74, #141, #155 ) ) ;
#112 = APPROVAL ( #39, 'UNSPECIFIED' ) ;
#113 = FACE_BOUND ( 'NONE', #105, .T. ) ;
#114 = CIRCLE ( 'NONE', #37, 20.00000000000000000 ) ;
#115 = PRODUCT ( '24084', '24084', '', ( #43 ) ) ;
#116 = CC_DESIGN_PERSON_AND_ORGANIZATION_ASSIGNMENT ( #134, #21, ( #50 ) ) ;
#117 = SECURITY_CLASSIFICATION ( '', '', #5 ) ;
#118 = CIRCLE ( 'NONE', #53, 5.000000000000000000 ) ;
#119 = DATE_AND_TIME ( #101, #162 ) ;
#120 = LOCAL_TIME ( 13, 58, 32.00000000000000000, #78 ) ;
#121 = DATE_AND_TIME ( #70, #60 ) ;
#122 = PERSON_AND_ORGANIZATION_ROLE ( 'design_supplier' ) ;
#123 = CIRCLE ( 'NONE', #48, 5.000000000000000000 ) ;
#124 = PLANE ( 'NONE',  #52 ) ;
#125 =( LENGTH_UNIT ( ) NAMED_UNIT ( * ) SI_UNIT ( .MILLI., .METRE. ) );
#126 = EDGE_LOOP ( 'NONE', ( #42 ) ) ;
#127 = APPROVAL_ROLE ( '' ) ;
#128 = DIRECTION ( 'NONE',  ( -3.491481338843133355E-15, -1.887515091647312012E-15, -1.000000000000000000 ) ) ;
#129 = CALENDAR_DATE ( 2021, 6, 12 ) ;
#130 = CARTESIAN_POINT ( 'NONE',  ( 0.0000000000000000000, 0.0000000000000000000, 0.0000000000000000000 ) ) ;
#131 = AXIS2_PLACEMENT_3D ( 'NONE', #87, #104, #4 ) ;
#132 = CC_DESIGN_APPROVAL ( #56, ( #117 ) ) ;
#133 = COORDINATED_UNIVERSAL_TIME_OFFSET ( 1, 0, .AHEAD. ) ;
#134 = PERSON_AND_ORGANIZATION ( #67, #144 ) ;
#135 = DIRECTION ( 'NONE',  ( -6.590223719271378193E-30, 1.000000000000000000, -1.887515091647312406E-15 ) ) ;
#136 = VERTEX_POINT ( 'NONE', #160 ) ;
#137 = ORIENTED_EDGE ( 'NONE', *, *, #18, .F. ) ;
#138 = CC_DESIGN_PERSON_AND_ORGANIZATION_ASSIGNMENT ( #65, #2, ( #115 ) ) ;
#139 = EDGE_LOOP ( 'NONE', ( #161 ) ) ;
#140 = DIRECTION ( 'NONE',  ( -6.590223719271376791E-30, 1.000000000000000000, -1.887515091647312012E-15 ) ) ;
#141 = ADVANCED_FACE ( 'NONE', ( #90, #73 ), #63, .T. ) ;
#142 = CIRCLE ( 'NONE', #66, 20.00000000000000000 ) ;
#143 = CC_DESIGN_PERSON_AND_ORGANIZATION_ASSIGNMENT ( #72, #122, ( #50 ) ) ;
#144 = ORGANIZATION ( 'UNSPECIFIED', 'UNSPECIFIED', '' ) ;
#145 = ADVANCED_FACE ( 'NONE', ( #95, #113 ), #124, .T. ) ;
#146 = PERSON_AND_ORGANIZATION_ROLE ( 'creator' ) ;
#147 = CC_DESIGN_PERSON_AND_ORGANIZATION_ASSIGNMENT ( #158, #146, ( #34 ) ) ;
#148 = APPROVAL_ROLE ( '' ) ;
#149 = APPROVAL_DATE_TIME ( #121, #64 ) ;
#150 = CARTESIAN_POINT ( 'NONE',  ( 0.0000000000000000000, 0.0000000000000000000, 0.0000000000000000000 ) ) ;
#151 = DIRECTION ( 'NONE',  ( -6.590223719271378193E-30, 1.000000000000000000, -1.887515091647312406E-15 ) ) ;
#152 = DIRECTION ( 'NONE',  ( -3.491481338843133355E-15, -1.887515091647312012E-15, -1.000000000000000000 ) ) ;
#153 = DIRECTION ( 'NONE',  ( -6.586680409804346617E-30, 1.000000000000000000, -1.886511780124777715E-15 ) ) ;
#154 = PERSON_AND_ORGANIZATION_ROLE ( 'classification_officer' ) ;
#155 = ADVANCED_FACE ( 'NONE', ( #25, #47 ), #57, .F. ) ;
#156 = APPROVAL_DATE_TIME ( #119, #112 ) ;
#157 = APPLICATION_CONTEXT ( 'configuration controlled 3d designs of mechanical parts and assemblies' ) ;
#158 = PERSON_AND_ORGANIZATION ( #67, #144 ) ;
#159 = EDGE_LOOP ( 'NONE', ( #108 ) ) ;
#160 = CARTESIAN_POINT ( 'NONE',  ( 0.0000000000000000000, 5.000000000000000000, 0.0000000000000000000 ) ) ;
#161 = ORIENTED_EDGE ( 'NONE', *, *, #10, .T. ) ;
#162 = LOCAL_TIME ( 13, 58, 32.00000000000000000, #92 ) ;
#163 = DIRECTION ( 'NONE',  ( -6.590223719271378193E-30, 1.000000000000000000, -1.887515091647312406E-15 ) ) ;
#164 = DATE_TIME_ROLE ( 'classification_date' ) ;
#165 = CARTESIAN_POINT ( 'NONE',  ( 6.982962677686596060E-16, 3.775030183294801616E-16, 0.2000000000000094202 ) ) ;
#166 = COORDINATED_UNIVERSAL_TIME_OFFSET ( 1, 0, .AHEAD. ) ;
#167 = CARTESIAN_POINT ( 'NONE',  ( 4.942667789453532664E-29, 5.000000000000000000, 1.415636318735484186E-14 ) ) ;
#168 = PRODUCT_RELATED_PRODUCT_CATEGORY ( 'detail', '', ( #115 ) ) ;
#169 = DATE_AND_TIME ( #8, #120 ) ;
ENDSEC;
END-ISO-10303-21;
