ISO-10303-21;
HEADER;
FILE_DESCRIPTION (( 'STEP AP203' ),
    '1' );
FILE_NAME ('23886.step',
    '2021-11-12T10:08:52',
    ( '' ),
    ( '' ),
    'SwSTEP 2.0',
    'SolidWorks 2019',
    '' );
FILE_SCHEMA (( 'CONFIG_CONTROL_DESIGN' ));
ENDSEC;

DATA;
#1 = ORIENTED_EDGE ( 'NONE', *, *, #126, .T. ) ;
#2 = FACE_OUTER_BOUND ( 'NONE', #66, .T. ) ;
#3 = CARTESIAN_POINT ( 'NONE',  ( -1.603436792211359521E-30, 5.624099184981965482E-32, -4.592425496802573972E-16 ) ) ;
#4 = DATE_AND_TIME ( #36, #184 ) ;
#5 = DIRECTION ( 'NONE',  ( -3.491481338843133355E-15, 1.224646799147353207E-16, -1.000000000000000000 ) ) ;
#6 = PERSON_AND_ORGANIZATION ( #187, #56 ) ;
#7 = APPROVAL_DATE_TIME ( #4, #82 ) ;
#8 = CC_DESIGN_APPROVAL ( #30, ( #24 ) ) ;
#9 = DIRECTION ( 'NONE',  ( -3.491481338843133355E-15, 1.224646799147353207E-16, -1.000000000000000000 ) ) ;
#10 = CC_DESIGN_PERSON_AND_ORGANIZATION_ASSIGNMENT ( #125, #157, ( #48 ) ) ;
#11 = PERSON_AND_ORGANIZATION ( #187, #56 ) ;
#12 = EDGE_LOOP ( 'NONE', ( #170 ) ) ;
#13 = APPROVAL_STATUS ( 'not_yet_approved' ) ;
#14 = EDGE_CURVE ( 'NONE', #199, #199, #60, .T. ) ;
#15 = FACE_OUTER_BOUND ( 'NONE', #142, .T. ) ;
#16 = AXIS2_PLACEMENT_3D ( 'NONE', #51, #97, #78 ) ;
#17 = DIRECTION ( 'NONE',  ( 3.491481338843133355E-15, -1.224646799147353207E-16, 1.000000000000000000 ) ) ;
#18 = CYLINDRICAL_SURFACE ( 'NONE', #139, 7.499999999999994671 ) ;
#19 = CC_DESIGN_DATE_AND_TIME_ASSIGNMENT ( #35, #173, ( #200 ) ) ;
#20 = DIRECTION ( 'NONE',  ( -3.491481338843133355E-15, 1.224646799147353207E-16, -1.000000000000000000 ) ) ;
#21 =( GEOMETRIC_REPRESENTATION_CONTEXT ( 3 ) GLOBAL_UNCERTAINTY_ASSIGNED_CONTEXT ( ( #181 ) ) GLOBAL_UNIT_ASSIGNED_CONTEXT ( ( #123, #178, #104 ) ) REPRESENTATION_CONTEXT ( 'NONE', 'WORKASPACE' ) );
#22 = ADVANCED_FACE ( 'NONE', ( #136, #15 ), #18, .T. ) ;
#23 = CARTESIAN_POINT ( 'NONE',  ( -3.206873584422719042E-30, 1.124819836996393096E-31, -9.184850993605147944E-16 ) ) ;
#24 = PRODUCT_DEFINITION_FORMATION_WITH_SPECIFIED_SOURCE ( 'ANY', '', #65, .NOT_KNOWN. ) ;
#25 = APPROVAL_STATUS ( 'not_yet_approved' ) ;
#26 = CALENDAR_DATE ( 2021, 12, 11 ) ;
#27 = ORIENTED_EDGE ( 'NONE', *, *, #126, .F. ) ;
#28 = CIRCLE ( 'NONE', #159, 7.000000000000001776 ) ;
#29 = EDGE_LOOP ( 'NONE', ( #80 ) ) ;
#30 = APPROVAL ( #13, 'UNSPECIFIED' ) ;
#31 = EDGE_LOOP ( 'NONE', ( #1 ) ) ;
#32 = ORIENTED_EDGE ( 'NONE', *, *, #99, .F. ) ;
#33 = PERSON_AND_ORGANIZATION_ROLE ( 'creator' ) ;
#34 = DIRECTION ( 'NONE',  ( 4.275831445896958607E-31, 1.000000000000000000, 1.224646799147352961E-16 ) ) ;
#35 = DATE_AND_TIME ( #134, #143 ) ;
#36 = CALENDAR_DATE ( 2021, 12, 11 ) ;
#37 = PRODUCT_RELATED_PRODUCT_CATEGORY ( 'detail', '', ( #65 ) ) ;
#38 = FACE_OUTER_BOUND ( 'NONE', #50, .T. ) ;
#39 = APPROVAL_DATE_TIME ( #132, #30 ) ;
#40 = AXIS2_PLACEMENT_3D ( 'NONE', #67, #69, #176 ) ;
#41 = LOCAL_TIME ( 11, 8, 52.00000000000000000, #108 ) ;
#42 = CIRCLE ( 'NONE', #137, 7.500000000000000000 ) ;
#43 = DIRECTION ( 'NONE',  ( 0.0000000000000000000, 1.000000000000000000, 0.0000000000000000000 ) ) ;
#44 = DESIGN_CONTEXT ( 'detailed design', #75, 'design' ) ;
#45 = PERSON_AND_ORGANIZATION ( #187, #56 ) ;
#46 = CALENDAR_DATE ( 2021, 12, 11 ) ;
#47 = COORDINATED_UNIVERSAL_TIME_OFFSET ( 1, 0, .AHEAD. ) ;
#48 = PRODUCT_DEFINITION ( 'UNKNOWN', '', #24, #44 ) ;
#49 = EDGE_LOOP ( 'NONE', ( #95 ) ) ;
#50 = EDGE_LOOP ( 'NONE', ( #27 ) ) ;
#51 = CARTESIAN_POINT ( 'NONE',  ( 1.047444401652940007E-13, -3.673940397442059178E-15, 30.00000000000000000 ) ) ;
#52 = CC_DESIGN_SECURITY_CLASSIFICATION ( #200, ( #24 ) ) ;
#53 = CC_DESIGN_PERSON_AND_ORGANIZATION_ASSIGNMENT ( #149, #54, ( #200 ) ) ;
#54 = PERSON_AND_ORGANIZATION_ROLE ( 'classification_officer' ) ;
#55 = DIRECTION ( 'NONE',  ( -4.275831445896958607E-31, -1.000000000000000000, -1.224646799147353207E-16 ) ) ;
#56 = ORGANIZATION ( 'UNSPECIFIED', 'UNSPECIFIED', '' ) ;
#57 = ADVANCED_FACE ( 'NONE', ( #101 ), #188, .T. ) ;
#58 = FACE_BOUND ( 'NONE', #31, .T. ) ;
#59 = VERTEX_POINT ( 'NONE', #121 ) ;
#60 = CIRCLE ( 'NONE', #16, 7.500000000000000000 ) ;
#61 = AXIS2_PLACEMENT_3D ( 'NONE', #86, #9, #138 ) ;
#62 = VERTEX_POINT ( 'NONE', #177 ) ;
#63 = CALENDAR_DATE ( 2021, 12, 11 ) ;
#64 = ORIENTED_EDGE ( 'NONE', *, *, #198, .T. ) ;
#65 = PRODUCT ( '23886', '23886', '', ( #183 ) ) ;
#66 = EDGE_LOOP ( 'NONE', ( #64 ) ) ;
#67 = CARTESIAN_POINT ( 'NONE',  ( 1.047444401652940007E-13, 5.624099184981961103E-32, 30.00000000000000000 ) ) ;
#68 = CIRCLE ( 'NONE', #92, 7.499999999999988454 ) ;
#69 = DIRECTION ( 'NONE',  ( 3.491481338843133355E-15, -1.224646799147353207E-16, 1.000000000000000000 ) ) ;
#70 = MANIFOLD_SOLID_BREP ( 'Corps-Déplacer/Copier1[2]', #100 ) ;
#71 = FACE_OUTER_BOUND ( 'NONE', #111, .T. ) ;
#72 = PERSON_AND_ORGANIZATION ( #187, #56 ) ;
#73 = PLANE ( 'NONE',  #40 ) ;
#74 = ADVANCED_FACE ( 'NONE', ( #2 ), #73, .F. ) ;
#75 = APPLICATION_CONTEXT ( 'configuration controlled 3d designs of mechanical parts and assemblies' ) ;
#76 = LOCAL_TIME ( 11, 8, 52.00000000000000000, #47 ) ;
#77 = COORDINATED_UNIVERSAL_TIME_OFFSET ( 1, 0, .AHEAD. ) ;
#78 = DIRECTION ( 'NONE',  ( 0.0000000000000000000, 1.000000000000000000, 0.0000000000000000000 ) ) ;
#79 = APPLICATION_PROTOCOL_DEFINITION ( 'international standard', 'config_control_design', 1994, #153 ) ;
#80 = ORIENTED_EDGE ( 'NONE', *, *, #191, .T. ) ;
#81 = DATE_AND_TIME ( #26, #155 ) ;
#82 = APPROVAL ( #115, 'UNSPECIFIED' ) ;
#83 = CARTESIAN_POINT ( 'NONE',  ( 2.618611004132349638E-13, -9.184850993605147156E-15, 74.99999999999998579 ) ) ;
#84 = CARTESIAN_POINT ( 'NONE',  ( 2.618611004132349638E-13, -9.184850993605147156E-15, 74.99999999999998579 ) ) ;
#85 = CC_DESIGN_PERSON_AND_ORGANIZATION_ASSIGNMENT ( #201, #91, ( #65 ) ) ;
#86 = CARTESIAN_POINT ( 'NONE',  ( 2.618611004132349638E-13, 1.752030434201778904E-30, 74.99999999999998579 ) ) ;
#87 = SECURITY_CLASSIFICATION_LEVEL ( 'unclassified' ) ;
#88 = APPROVAL_PERSON_ORGANIZATION ( #11, #30, #141 ) ;
#89 = CARTESIAN_POINT ( 'NONE',  ( 1.047444401652940007E-13, -3.673940397442059178E-15, 30.00000000000000000 ) ) ;
#90 = APPROVAL_DATE_TIME ( #158, #105 ) ;
#91 = PERSON_AND_ORGANIZATION_ROLE ( 'design_owner' ) ;
#92 = AXIS2_PLACEMENT_3D ( 'NONE', #193, #5, #163 ) ;
#93 = DIRECTION ( 'NONE',  ( 1.000000000000000000, 0.0000000000000000000, 0.0000000000000000000 ) ) ;
#94 = AXIS2_PLACEMENT_3D ( 'NONE', #84, #150, #129 ) ;
#95 = ORIENTED_EDGE ( 'NONE', *, *, #191, .F. ) ;
#96 = ORIENTED_EDGE ( 'NONE', *, *, #99, .T. ) ;
#97 = DIRECTION ( 'NONE',  ( -3.491481338843133355E-15, 1.224646799147353207E-16, -1.000000000000000000 ) ) ;
#98 = CIRCLE ( 'NONE', #124, 7.500000000000000000 ) ;
#99 = EDGE_CURVE ( 'NONE', #62, #62, #68, .T. ) ;
#100 = CLOSED_SHELL ( 'NONE', ( #57, #151, #160 ) ) ;
#101 = FACE_OUTER_BOUND ( 'NONE', #29, .T. ) ;
#102 = SHAPE_DEFINITION_REPRESENTATION ( #186, #169 ) ;
#103 = PLANE ( 'NONE',  #61 ) ;
#104 =( NAMED_UNIT ( * ) SI_UNIT ( $, .STERADIAN. ) SOLID_ANGLE_UNIT ( ) );
#105 = APPROVAL ( #25, 'UNSPECIFIED' ) ;
#106 = CARTESIAN_POINT ( 'NONE',  ( 2.618611004132349638E-13, 6.999999999999992006, 74.99999999999998579 ) ) ;
#107 = APPROVAL_ROLE ( '' ) ;
#108 = COORDINATED_UNIVERSAL_TIME_OFFSET ( 1, 0, .AHEAD. ) ;
#109 = COORDINATED_UNIVERSAL_TIME_OFFSET ( 1, 0, .AHEAD. ) ;
#110 = ORIENTED_EDGE ( 'NONE', *, *, #198, .F. ) ;
#111 = EDGE_LOOP ( 'NONE', ( #32 ) ) ;
#112 = DIRECTION ( 'NONE',  ( -3.491481338843133355E-15, 1.224646799147353207E-16, -1.000000000000000000 ) ) ;
#113 = CARTESIAN_POINT ( 'NONE',  ( 0.0000000000000000000, 0.0000000000000000000, 0.0000000000000000000 ) ) ;
#114 = PLANE ( 'NONE',  #148 ) ;
#115 = APPROVAL_STATUS ( 'not_yet_approved' ) ;
#116 = FACE_OUTER_BOUND ( 'NONE', #166, .T. ) ;
#117 = AXIS2_PLACEMENT_3D ( 'NONE', #167, #140, #93 ) ;
#118 = CARTESIAN_POINT ( 'NONE',  ( 0.0000000000000000000, 7.500000000000000000, 0.0000000000000000000 ) ) ;
#119 = CLOSED_SHELL ( 'NONE', ( #74, #22, #122, #182 ) ) ;
#120 = AXIS2_PLACEMENT_3D ( 'NONE', #113, #112, #34 ) ;
#121 = CARTESIAN_POINT ( 'NONE',  ( 1.047444401652940007E-13, 7.499999999999996447, 30.00000000000000000 ) ) ;
#122 = ADVANCED_FACE ( 'NONE', ( #71, #58 ), #130, .T. ) ;
#123 =( LENGTH_UNIT ( ) NAMED_UNIT ( * ) SI_UNIT ( .MILLI., .METRE. ) );
#124 = AXIS2_PLACEMENT_3D ( 'NONE', #89, #196, #43 ) ;
#125 = PERSON_AND_ORGANIZATION ( #187, #56 ) ;
#126 = EDGE_CURVE ( 'NONE', #180, #180, #28, .T. ) ;
#127 = FACE_OUTER_BOUND ( 'NONE', #12, .T. ) ;
#128 = AXIS2_PLACEMENT_3D ( 'NONE', #3, #190, #145 ) ;
#129 = DIRECTION ( 'NONE',  ( 0.0000000000000000000, 1.000000000000000000, 0.0000000000000000000 ) ) ;
#130 = CONICAL_SURFACE ( 'NONE', #94, 7.000000000000001776, 0.7853981633974482790 ) ;
#131 = CYLINDRICAL_SURFACE ( 'NONE', #120, 7.500000000000000000 ) ;
#132 = DATE_AND_TIME ( #63, #76 ) ;
#133 = DIRECTION ( 'NONE',  ( -3.491481338843133355E-15, 1.224646799147353207E-16, -1.000000000000000000 ) ) ;
#134 = CALENDAR_DATE ( 2021, 12, 11 ) ;
#135 = CC_DESIGN_APPROVAL ( #105, ( #48 ) ) ;
#136 = FACE_OUTER_BOUND ( 'NONE', #161, .T. ) ;
#137 = AXIS2_PLACEMENT_3D ( 'NONE', #23, #20, #154 ) ;
#138 = DIRECTION ( 'NONE',  ( 4.275831445896958607E-31, 1.000000000000000000, 1.224646799147353207E-16 ) ) ;
#139 = AXIS2_PLACEMENT_3D ( 'NONE', #162, #133, #146 ) ;
#140 = DIRECTION ( 'NONE',  ( 0.0000000000000000000, 0.0000000000000000000, 1.000000000000000000 ) ) ;
#141 = APPROVAL_ROLE ( '' ) ;
#142 = EDGE_LOOP ( 'NONE', ( #110 ) ) ;
#143 = LOCAL_TIME ( 11, 8, 52.00000000000000000, #77 ) ;
#144 = CC_DESIGN_PERSON_AND_ORGANIZATION_ASSIGNMENT ( #6, #33, ( #24 ) ) ;
#145 = DIRECTION ( 'NONE',  ( 4.275831445896958607E-31, 1.000000000000000000, 1.224646799147353207E-16 ) ) ;
#146 = DIRECTION ( 'NONE',  ( 4.275831445896958607E-31, 1.000000000000000000, 1.224646799147353207E-16 ) ) ;
#147 = DIRECTION ( 'NONE',  ( 0.0000000000000000000, 1.000000000000000000, 0.0000000000000000000 ) ) ;
#148 = AXIS2_PLACEMENT_3D ( 'NONE', #194, #17, #55 ) ;
#149 = PERSON_AND_ORGANIZATION ( #187, #56 ) ;
#150 = DIRECTION ( 'NONE',  ( -3.491481338843133355E-15, 1.224646799147353207E-16, -1.000000000000000000 ) ) ;
#151 = ADVANCED_FACE ( 'NONE', ( #127, #172 ), #131, .T. ) ;
#152 = APPROVAL_PERSON_ORGANIZATION ( #45, #105, #107 ) ;
#153 = APPLICATION_CONTEXT ( 'configuration controlled 3d designs of mechanical parts and assemblies' ) ;
#154 = DIRECTION ( 'NONE',  ( 4.275831445896958607E-31, 1.000000000000000000, 1.224646799147352961E-16 ) ) ;
#155 = LOCAL_TIME ( 11, 8, 52.00000000000000000, #109 ) ;
#156 = CARTESIAN_POINT ( 'NONE',  ( 1.047444401652940007E-13, 7.499999999999996447, 30.00000000000000000 ) ) ;
#157 = PERSON_AND_ORGANIZATION_ROLE ( 'creator' ) ;
#158 = DATE_AND_TIME ( #46, #41 ) ;
#159 = AXIS2_PLACEMENT_3D ( 'NONE', #83, #189, #147 ) ;
#160 = ADVANCED_FACE ( 'NONE', ( #116 ), #114, .T. ) ;
#161 = EDGE_LOOP ( 'NONE', ( #96 ) ) ;
#162 = CARTESIAN_POINT ( 'NONE',  ( 0.0000000000000000000, 0.0000000000000000000, 0.0000000000000000000 ) ) ;
#163 = DIRECTION ( 'NONE',  ( 0.0000000000000000000, 1.000000000000000000, 0.0000000000000000000 ) ) ;
#164 = CC_DESIGN_PERSON_AND_ORGANIZATION_ASSIGNMENT ( #192, #195, ( #24 ) ) ;
#165 = APPROVAL_ROLE ( '' ) ;
#166 = EDGE_LOOP ( 'NONE', ( #168 ) ) ;
#167 = CARTESIAN_POINT ( 'NONE',  ( 0.0000000000000000000, 0.0000000000000000000, 0.0000000000000000000 ) ) ;
#168 = ORIENTED_EDGE ( 'NONE', *, *, #14, .F. ) ;
#169 = ADVANCED_BREP_SHAPE_REPRESENTATION ( '23886', ( #203, #70, #117 ), #21 ) ;
#170 = ORIENTED_EDGE ( 'NONE', *, *, #14, .T. ) ;
#171 = APPROVAL_PERSON_ORGANIZATION ( #72, #82, #165 ) ;
#172 = FACE_OUTER_BOUND ( 'NONE', #49, .T. ) ;
#173 = DATE_TIME_ROLE ( 'classification_date' ) ;
#174 = CC_DESIGN_DATE_AND_TIME_ASSIGNMENT ( #81, #185, ( #48 ) ) ;
#175 = COORDINATED_UNIVERSAL_TIME_OFFSET ( 1, 0, .AHEAD. ) ;
#176 = DIRECTION ( 'NONE',  ( -4.275831445896958607E-31, -1.000000000000000000, -1.224646799147353207E-16 ) ) ;
#177 = CARTESIAN_POINT ( 'NONE',  ( 2.601153597438134034E-13, 7.499999999999978684, 74.50000000000000000 ) ) ;
#178 =( NAMED_UNIT ( * ) PLANE_ANGLE_UNIT ( ) SI_UNIT ( $, .RADIAN. ) );
#179 = CC_DESIGN_APPROVAL ( #82, ( #200 ) ) ;
#180 = VERTEX_POINT ( 'NONE', #106 ) ;
#181 = UNCERTAINTY_MEASURE_WITH_UNIT (LENGTH_MEASURE( 1.000000000000000082E-05 ), #123, 'distance_accuracy_value', 'NONE');
#182 = ADVANCED_FACE ( 'NONE', ( #38 ), #103, .F. ) ;
#183 = MECHANICAL_CONTEXT ( 'NONE', #153, 'mechanical' ) ;
#184 = LOCAL_TIME ( 11, 8, 52.00000000000000000, #175 ) ;
#185 = DATE_TIME_ROLE ( 'creation_date' ) ;
#186 = PRODUCT_DEFINITION_SHAPE ( 'NONE', 'NONE',  #48 ) ;
#187 = PERSON ( 'UNSPECIFIED', 'UNSPECIFIED', 'UNSPECIFIED', ('UNSPECIFIED'), ('UNSPECIFIED'), ('UNSPECIFIED') ) ;
#188 = PLANE ( 'NONE',  #128 ) ;
#189 = DIRECTION ( 'NONE',  ( -3.491481338843133355E-15, 1.224646799147353207E-16, -1.000000000000000000 ) ) ;
#190 = DIRECTION ( 'NONE',  ( -3.491481338843133355E-15, 1.224646799147353207E-16, -1.000000000000000000 ) ) ;
#191 = EDGE_CURVE ( 'NONE', #197, #197, #42, .T. ) ;
#192 = PERSON_AND_ORGANIZATION ( #187, #56 ) ;
#193 = CARTESIAN_POINT ( 'NONE',  ( 2.601153597438134034E-13, -9.123618653647781159E-15, 74.50000000000000000 ) ) ;
#194 = CARTESIAN_POINT ( 'NONE',  ( 1.047444401652940007E-13, 5.624099184981961103E-32, 30.00000000000000000 ) ) ;
#195 = PERSON_AND_ORGANIZATION_ROLE ( 'design_supplier' ) ;
#196 = DIRECTION ( 'NONE',  ( -3.491481338843133355E-15, 1.224646799147353207E-16, -1.000000000000000000 ) ) ;
#197 = VERTEX_POINT ( 'NONE', #118 ) ;
#198 = EDGE_CURVE ( 'NONE', #59, #59, #98, .T. ) ;
#199 = VERTEX_POINT ( 'NONE', #156 ) ;
#200 = SECURITY_CLASSIFICATION ( '', '', #87 ) ;
#201 = PERSON_AND_ORGANIZATION ( #187, #56 ) ;
#202 = APPLICATION_PROTOCOL_DEFINITION ( 'international standard', 'config_control_design', 1994, #75 ) ;
#203 = MANIFOLD_SOLID_BREP ( 'Corps-Déplacer/Copier1[1]', #119 ) ;
ENDSEC;
END-ISO-10303-21;
