ISO-10303-21;
HEADER;
FILE_DESCRIPTION (( 'STEP AP203' ),
    '1' );
FILE_NAME ('23885.step',
    '2021-11-12T10:08:52',
    ( '' ),
    ( '' ),
    'SwSTEP 2.0',
    'SolidWorks 2019',
    '' );
FILE_SCHEMA (( 'CONFIG_CONTROL_DESIGN' ));
ENDSEC;

DATA;
#1 = EDGE_LOOP ( 'NONE', ( #203 ) ) ;
#2 = CIRCLE ( 'NONE', #8, 6.499999999999999112 ) ;
#3 = APPROVAL ( #118, 'UNSPECIFIED' ) ;
#4 = EDGE_LOOP ( 'NONE', ( #58 ) ) ;
#5 = ADVANCED_FACE ( 'NONE', ( #66, #128 ), #114, .T. ) ;
#6 = APPROVAL ( #14, 'UNSPECIFIED' ) ;
#7 = EDGE_LOOP ( 'NONE', ( #157 ) ) ;
#8 = AXIS2_PLACEMENT_3D ( 'NONE', #143, #126, #190 ) ;
#9 = DIRECTION ( 'NONE',  ( 4.275831445896958607E-31, 1.000000000000000000, 1.224646799147353207E-16 ) ) ;
#10 = VERTEX_POINT ( 'NONE', #23 ) ;
#11 =( LENGTH_UNIT ( ) NAMED_UNIT ( * ) SI_UNIT ( .MILLI., .METRE. ) );
#12 = ADVANCED_FACE ( 'NONE', ( #34, #62 ), #148, .T. ) ;
#13 = ORIENTED_EDGE ( 'NONE', *, *, #35, .F. ) ;
#14 = APPROVAL_STATUS ( 'not_yet_approved' ) ;
#15 = EDGE_CURVE ( 'NONE', #10, #10, #92, .T. ) ;
#16 = AXIS2_PLACEMENT_3D ( 'NONE', #174, #49, #129 ) ;
#17 = CC_DESIGN_DATE_AND_TIME_ASSIGNMENT ( #96, #156, ( #77 ) ) ;
#18 = MANIFOLD_SOLID_BREP ( 'Corps-Déplacer/Copier1[1]', #176 ) ;
#19 = AXIS2_PLACEMENT_3D ( 'NONE', #87, #103, #52 ) ;
#20 = DIRECTION ( 'NONE',  ( -3.491481338843133355E-15, 1.224646799147353207E-16, -1.000000000000000000 ) ) ;
#21 = PLANE ( 'NONE',  #134 ) ;
#22 = PERSON_AND_ORGANIZATION ( #188, #51 ) ;
#23 = CARTESIAN_POINT ( 'NONE',  ( 1.047444401652940007E-13, 6.499999999999995559, 30.00000000000000000 ) ) ;
#24 = CARTESIAN_POINT ( 'NONE',  ( 1.047444401652940007E-13, 4.874219293651031204E-32, 30.00000000000000000 ) ) ;
#25 = PERSON_AND_ORGANIZATION ( #188, #51 ) ;
#26 = AXIS2_PLACEMENT_3D ( 'NONE', #163, #20, #84 ) ;
#27 = CALENDAR_DATE ( 2021, 12, 11 ) ;
#28 = APPROVAL_PERSON_ORGANIZATION ( #140, #6, #80 ) ;
#29 = ORIENTED_EDGE ( 'NONE', *, *, #99, .F. ) ;
#30 = PRODUCT_DEFINITION ( 'UNKNOWN', '', #40, #65 ) ;
#31 = ORIENTED_EDGE ( 'NONE', *, *, #50, .T. ) ;
#32 = CARTESIAN_POINT ( 'NONE',  ( 0.0000000000000000000, 0.0000000000000000000, 0.0000000000000000000 ) ) ;
#33 = FACE_OUTER_BOUND ( 'NONE', #141, .T. ) ;
#34 = FACE_OUTER_BOUND ( 'NONE', #1, .T. ) ;
#35 = EDGE_CURVE ( 'NONE', #132, #132, #144, .T. ) ;
#36 = DIRECTION ( 'NONE',  ( 1.000000000000000000, 0.0000000000000000000, 0.0000000000000000000 ) ) ;
#37 = ADVANCED_FACE ( 'NONE', ( #33, #47 ), #88, .T. ) ;
#38 = FACE_OUTER_BOUND ( 'NONE', #187, .T. ) ;
#39 = DIRECTION ( 'NONE',  ( -4.275831445896958607E-31, -1.000000000000000000, -1.224646799147353207E-16 ) ) ;
#40 = PRODUCT_DEFINITION_FORMATION_WITH_SPECIFIED_SOURCE ( 'ANY', '', #152, .NOT_KNOWN. ) ;
#41 = COORDINATED_UNIVERSAL_TIME_OFFSET ( 1, 0, .AHEAD. ) ;
#42 = PERSON_AND_ORGANIZATION ( #188, #51 ) ;
#43 = APPROVAL_DATE_TIME ( #136, #3 ) ;
#44 = APPROVAL ( #57, 'UNSPECIFIED' ) ;
#45 = CC_DESIGN_APPROVAL ( #3, ( #30 ) ) ;
#46 = ADVANCED_BREP_SHAPE_REPRESENTATION ( '23885', ( #18, #158, #133 ), #149 ) ;
#47 = FACE_BOUND ( 'NONE', #79, .T. ) ;
#48 = EDGE_LOOP ( 'NONE', ( #31 ) ) ;
#49 = DIRECTION ( 'NONE',  ( -3.491481338843133355E-15, 1.224646799147353207E-16, -1.000000000000000000 ) ) ;
#50 = EDGE_CURVE ( 'NONE', #89, #89, #2, .T. ) ;
#51 = ORGANIZATION ( 'UNSPECIFIED', 'UNSPECIFIED', '' ) ;
#52 = DIRECTION ( 'NONE',  ( 0.0000000000000000000, 1.000000000000000000, 0.0000000000000000000 ) ) ;
#53 = ADVANCED_FACE ( 'NONE', ( #113 ), #172, .T. ) ;
#54 = CARTESIAN_POINT ( 'NONE',  ( -2.779290439833023007E-30, 9.748438587302075546E-32, -7.960204194457795477E-16 ) ) ;
#55 = SECURITY_CLASSIFICATION_LEVEL ( 'unclassified' ) ;
#56 = PERSON_AND_ORGANIZATION ( #188, #51 ) ;
#57 = APPROVAL_STATUS ( 'not_yet_approved' ) ;
#58 = ORIENTED_EDGE ( 'NONE', *, *, #15, .T. ) ;
#59 = CC_DESIGN_PERSON_AND_ORGANIZATION_ASSIGNMENT ( #56, #137, ( #40 ) ) ;
#60 = EDGE_LOOP ( 'NONE', ( #95 ) ) ;
#61 = ADVANCED_FACE ( 'NONE', ( #127 ), #182, .F. ) ;
#62 = FACE_OUTER_BOUND ( 'NONE', #60, .T. ) ;
#63 = APPLICATION_CONTEXT ( 'configuration controlled 3d designs of mechanical parts and assemblies' ) ;
#64 = DIRECTION ( 'NONE',  ( -4.275831445896958607E-31, -1.000000000000000000, -1.224646799147353207E-16 ) ) ;
#65 = DESIGN_CONTEXT ( 'detailed design', #100, 'design' ) ;
#66 = FACE_OUTER_BOUND ( 'NONE', #4, .T. ) ;
#67 = DIRECTION ( 'NONE',  ( 4.275831445896958607E-31, 1.000000000000000000, 1.224646799147353207E-16 ) ) ;
#68 = CARTESIAN_POINT ( 'NONE',  ( 2.618611004132349638E-13, 5.999999999999991118, 74.99999999999998579 ) ) ;
#69 = LOCAL_TIME ( 11, 8, 52.00000000000000000, #159 ) ;
#70 = CARTESIAN_POINT ( 'NONE',  ( 2.618611004132349638E-13, 1.744531635288469364E-30, 74.99999999999998579 ) ) ;
#71 = CARTESIAN_POINT ( 'NONE',  ( 2.601153597438134034E-13, 6.499999999999984901, 74.49999999999998579 ) ) ;
#72 = DIRECTION ( 'NONE',  ( -3.491481338843133355E-15, 1.224646799147353207E-16, -1.000000000000000000 ) ) ;
#73 = AXIS2_PLACEMENT_3D ( 'NONE', #162, #145, #64 ) ;
#74 = CC_DESIGN_PERSON_AND_ORGANIZATION_ASSIGNMENT ( #198, #196, ( #152 ) ) ;
#75 = PERSON_AND_ORGANIZATION ( #188, #51 ) ;
#76 = PERSON_AND_ORGANIZATION_ROLE ( 'creator' ) ;
#77 = SECURITY_CLASSIFICATION ( '', '', #55 ) ;
#78 = APPROVAL_ROLE ( '' ) ;
#79 = EDGE_LOOP ( 'NONE', ( #82 ) ) ;
#80 = APPROVAL_ROLE ( '' ) ;
#81 = EDGE_LOOP ( 'NONE', ( #98 ) ) ;
#82 = ORIENTED_EDGE ( 'NONE', *, *, #35, .T. ) ;
#83 = CC_DESIGN_DATE_AND_TIME_ASSIGNMENT ( #93, #110, ( #30 ) ) ;
#84 = DIRECTION ( 'NONE',  ( 0.0000000000000000000, 1.000000000000000000, 0.0000000000000000000 ) ) ;
#85 = CARTESIAN_POINT ( 'NONE',  ( 0.0000000000000000000, 0.0000000000000000000, 0.0000000000000000000 ) ) ;
#86 = DIRECTION ( 'NONE',  ( 4.275831445896958607E-31, 1.000000000000000000, 1.224646799147353207E-16 ) ) ;
#87 = CARTESIAN_POINT ( 'NONE',  ( 2.601153597438134034E-13, -9.123618653647779582E-15, 74.49999999999998579 ) ) ;
#88 = CONICAL_SURFACE ( 'NONE', #200, 6.000000000000000888, 0.7853981633974415066 ) ;
#89 = VERTEX_POINT ( 'NONE', #120 ) ;
#90 = APPLICATION_PROTOCOL_DEFINITION ( 'international standard', 'config_control_design', 1994, #63 ) ;
#91 = DIRECTION ( 'NONE',  ( -3.491481338843133355E-15, 1.224646799147353207E-16, -1.000000000000000000 ) ) ;
#92 = CIRCLE ( 'NONE', #26, 6.499999999999999112 ) ;
#93 = DATE_AND_TIME ( #107, #165 ) ;
#94 = APPROVAL_DATE_TIME ( #108, #44 ) ;
#95 = ORIENTED_EDGE ( 'NONE', *, *, #50, .F. ) ;
#96 = DATE_AND_TIME ( #27, #125 ) ;
#97 = DIRECTION ( 'NONE',  ( -3.491481338843133355E-15, 1.224646799147353207E-16, -1.000000000000000000 ) ) ;
#98 = ORIENTED_EDGE ( 'NONE', *, *, #15, .F. ) ;
#99 = EDGE_CURVE ( 'NONE', #195, #195, #180, .T. ) ;
#100 = APPLICATION_CONTEXT ( 'configuration controlled 3d designs of mechanical parts and assemblies' ) ;
#101 = ORIENTED_EDGE ( 'NONE', *, *, #142, .F. ) ;
#102 = DIRECTION ( 'NONE',  ( 4.275831445896958607E-31, 1.000000000000000000, 1.224646799147353207E-16 ) ) ;
#103 = DIRECTION ( 'NONE',  ( -3.491481338843133355E-15, 1.224646799147353207E-16, -1.000000000000000000 ) ) ;
#104 = MECHANICAL_CONTEXT ( 'NONE', #63, 'mechanical' ) ;
#105 = AXIS2_PLACEMENT_3D ( 'NONE', #70, #117, #9 ) ;
#106 = VERTEX_POINT ( 'NONE', #71 ) ;
#107 = CALENDAR_DATE ( 2021, 12, 11 ) ;
#108 = DATE_AND_TIME ( #201, #69 ) ;
#109 = CC_DESIGN_PERSON_AND_ORGANIZATION_ASSIGNMENT ( #42, #155, ( #77 ) ) ;
#110 = DATE_TIME_ROLE ( 'creation_date' ) ;
#111 = AXIS2_PLACEMENT_3D ( 'NONE', #85, #97, #67 ) ;
#112 = AXIS2_PLACEMENT_3D ( 'NONE', #54, #91, #131 ) ;
#113 = FACE_OUTER_BOUND ( 'NONE', #81, .T. ) ;
#114 = CYLINDRICAL_SURFACE ( 'NONE', #111, 6.499999999999999112 ) ;
#115 = CIRCLE ( 'NONE', #19, 6.499999999999994671 ) ;
#116 = CARTESIAN_POINT ( 'NONE',  ( 0.0000000000000000000, 6.500000000000000000, 0.0000000000000000000 ) ) ;
#117 = DIRECTION ( 'NONE',  ( -3.491481338843133355E-15, 1.224646799147353207E-16, -1.000000000000000000 ) ) ;
#118 = APPROVAL_STATUS ( 'not_yet_approved' ) ;
#119 = PRODUCT_DEFINITION_SHAPE ( 'NONE', 'NONE',  #30 ) ;
#120 = CARTESIAN_POINT ( 'NONE',  ( 1.047444401652940007E-13, 6.499999999999995559, 30.00000000000000000 ) ) ;
#121 = CC_DESIGN_SECURITY_CLASSIFICATION ( #77, ( #40 ) ) ;
#122 = COORDINATED_UNIVERSAL_TIME_OFFSET ( 1, 0, .AHEAD. ) ;
#123 = CLOSED_SHELL ( 'NONE', ( #175, #5, #53 ) ) ;
#124 = CC_DESIGN_PERSON_AND_ORGANIZATION_ASSIGNMENT ( #75, #170, ( #40 ) ) ;
#125 = LOCAL_TIME ( 11, 8, 52.00000000000000000, #171 ) ;
#126 = DIRECTION ( 'NONE',  ( -3.491481338843133355E-15, 1.224646799147353207E-16, -1.000000000000000000 ) ) ;
#127 = FACE_OUTER_BOUND ( 'NONE', #48, .T. ) ;
#128 = FACE_OUTER_BOUND ( 'NONE', #192, .T. ) ;
#129 = DIRECTION ( 'NONE',  ( 0.0000000000000000000, 1.000000000000000000, 0.0000000000000000000 ) ) ;
#130 = AXIS2_PLACEMENT_3D ( 'NONE', #24, #150, #39 ) ;
#131 = DIRECTION ( 'NONE',  ( 4.275831445896958607E-31, 1.000000000000000000, 1.224646799147353207E-16 ) ) ;
#132 = VERTEX_POINT ( 'NONE', #68 ) ;
#133 = AXIS2_PLACEMENT_3D ( 'NONE', #181, #164, #36 ) ;
#134 = AXIS2_PLACEMENT_3D ( 'NONE', #151, #72, #86 ) ;
#135 = APPLICATION_PROTOCOL_DEFINITION ( 'international standard', 'config_control_design', 1994, #100 ) ;
#136 = DATE_AND_TIME ( #202, #138 ) ;
#137 = PERSON_AND_ORGANIZATION_ROLE ( 'design_supplier' ) ;
#138 = LOCAL_TIME ( 11, 8, 52.00000000000000000, #154 ) ;
#139 = CALENDAR_DATE ( 2021, 12, 11 ) ;
#140 = PERSON_AND_ORGANIZATION ( #188, #51 ) ;
#141 = EDGE_LOOP ( 'NONE', ( #101 ) ) ;
#142 = EDGE_CURVE ( 'NONE', #106, #106, #115, .T. ) ;
#143 = CARTESIAN_POINT ( 'NONE',  ( 1.047444401652940007E-13, -3.673940397442059178E-15, 30.00000000000000000 ) ) ;
#144 = CIRCLE ( 'NONE', #16, 6.000000000000000888 ) ;
#145 = DIRECTION ( 'NONE',  ( 3.491481338843133355E-15, -1.224646799147353207E-16, 1.000000000000000000 ) ) ;
#146 = DIRECTION ( 'NONE',  ( -3.491481338843133355E-15, 1.224646799147353207E-16, -1.000000000000000000 ) ) ;
#147 = ADVANCED_FACE ( 'NONE', ( #38 ), #194, .F. ) ;
#148 = CYLINDRICAL_SURFACE ( 'NONE', #153, 6.499999999999997335 ) ;
#149 =( GEOMETRIC_REPRESENTATION_CONTEXT ( 3 ) GLOBAL_UNCERTAINTY_ASSIGNED_CONTEXT ( ( #173 ) ) GLOBAL_UNIT_ASSIGNED_CONTEXT ( ( #11, #168, #179 ) ) REPRESENTATION_CONTEXT ( 'NONE', 'WORKASPACE' ) );
#150 = DIRECTION ( 'NONE',  ( 3.491481338843133355E-15, -1.224646799147353207E-16, 1.000000000000000000 ) ) ;
#151 = CARTESIAN_POINT ( 'NONE',  ( -1.389645219916511503E-30, 4.874219293651037773E-32, -3.980102097228897738E-16 ) ) ;
#152 = PRODUCT ( '23885', '23885', '', ( #104 ) ) ;
#153 = AXIS2_PLACEMENT_3D ( 'NONE', #32, #193, #102 ) ;
#154 = COORDINATED_UNIVERSAL_TIME_OFFSET ( 1, 0, .AHEAD. ) ;
#155 = PERSON_AND_ORGANIZATION_ROLE ( 'classification_officer' ) ;
#156 = DATE_TIME_ROLE ( 'classification_date' ) ;
#157 = ORIENTED_EDGE ( 'NONE', *, *, #99, .T. ) ;
#158 = MANIFOLD_SOLID_BREP ( 'Corps-Déplacer/Copier1[2]', #123 ) ;
#159 = COORDINATED_UNIVERSAL_TIME_OFFSET ( 1, 0, .AHEAD. ) ;
#160 = APPROVAL_PERSON_ORGANIZATION ( #25, #44, #78 ) ;
#161 = CARTESIAN_POINT ( 'NONE',  ( 2.618611004132349638E-13, -9.184850993605147156E-15, 74.99999999999998579 ) ) ;
#162 = CARTESIAN_POINT ( 'NONE',  ( 1.047444401652940007E-13, 4.874219293651031204E-32, 30.00000000000000000 ) ) ;
#163 = CARTESIAN_POINT ( 'NONE',  ( 1.047444401652940007E-13, -3.673940397442059178E-15, 30.00000000000000000 ) ) ;
#164 = DIRECTION ( 'NONE',  ( 0.0000000000000000000, 0.0000000000000000000, 1.000000000000000000 ) ) ;
#165 = LOCAL_TIME ( 11, 8, 52.00000000000000000, #41 ) ;
#166 = APPROVAL_ROLE ( '' ) ;
#167 = FACE_OUTER_BOUND ( 'NONE', #7, .T. ) ;
#168 =( NAMED_UNIT ( * ) PLANE_ANGLE_UNIT ( ) SI_UNIT ( $, .RADIAN. ) );
#169 = APPROVAL_DATE_TIME ( #186, #6 ) ;
#170 = PERSON_AND_ORGANIZATION_ROLE ( 'creator' ) ;
#171 = COORDINATED_UNIVERSAL_TIME_OFFSET ( 1, 0, .AHEAD. ) ;
#172 = PLANE ( 'NONE',  #73 ) ;
#173 = UNCERTAINTY_MEASURE_WITH_UNIT (LENGTH_MEASURE( 1.000000000000000082E-05 ), #11, 'distance_accuracy_value', 'NONE');
#174 = CARTESIAN_POINT ( 'NONE',  ( 2.618611004132349638E-13, -9.184850993605147156E-15, 74.99999999999998579 ) ) ;
#175 = ADVANCED_FACE ( 'NONE', ( #167 ), #21, .T. ) ;
#176 = CLOSED_SHELL ( 'NONE', ( #61, #12, #37, #147 ) ) ;
#177 = CC_DESIGN_APPROVAL ( #6, ( #77 ) ) ;
#178 = DIRECTION ( 'NONE',  ( 0.0000000000000000000, 1.000000000000000000, 0.0000000000000000000 ) ) ;
#179 =( NAMED_UNIT ( * ) SI_UNIT ( $, .STERADIAN. ) SOLID_ANGLE_UNIT ( ) );
#180 = CIRCLE ( 'NONE', #112, 6.500000000000000000 ) ;
#181 = CARTESIAN_POINT ( 'NONE',  ( 0.0000000000000000000, 0.0000000000000000000, 0.0000000000000000000 ) ) ;
#182 = PLANE ( 'NONE',  #130 ) ;
#183 = CC_DESIGN_APPROVAL ( #44, ( #40 ) ) ;
#184 = LOCAL_TIME ( 11, 8, 52.00000000000000000, #122 ) ;
#185 = PERSON_AND_ORGANIZATION ( #188, #51 ) ;
#186 = DATE_AND_TIME ( #139, #184 ) ;
#187 = EDGE_LOOP ( 'NONE', ( #13 ) ) ;
#188 = PERSON ( 'UNSPECIFIED', 'UNSPECIFIED', 'UNSPECIFIED', ('UNSPECIFIED'), ('UNSPECIFIED'), ('UNSPECIFIED') ) ;
#189 = APPROVAL_PERSON_ORGANIZATION ( #22, #3, #166 ) ;
#190 = DIRECTION ( 'NONE',  ( 0.0000000000000000000, 1.000000000000000000, 0.0000000000000000000 ) ) ;
#191 = CC_DESIGN_PERSON_AND_ORGANIZATION_ASSIGNMENT ( #185, #76, ( #30 ) ) ;
#192 = EDGE_LOOP ( 'NONE', ( #29 ) ) ;
#193 = DIRECTION ( 'NONE',  ( -3.491481338843133355E-15, 1.224646799147353207E-16, -1.000000000000000000 ) ) ;
#194 = PLANE ( 'NONE',  #105 ) ;
#195 = VERTEX_POINT ( 'NONE', #116 ) ;
#196 = PERSON_AND_ORGANIZATION_ROLE ( 'design_owner' ) ;
#197 = PRODUCT_RELATED_PRODUCT_CATEGORY ( 'detail', '', ( #152 ) ) ;
#198 = PERSON_AND_ORGANIZATION ( #188, #51 ) ;
#199 = SHAPE_DEFINITION_REPRESENTATION ( #119, #46 ) ;
#200 = AXIS2_PLACEMENT_3D ( 'NONE', #161, #146, #178 ) ;
#201 = CALENDAR_DATE ( 2021, 12, 11 ) ;
#202 = CALENDAR_DATE ( 2021, 12, 11 ) ;
#203 = ORIENTED_EDGE ( 'NONE', *, *, #142, .T. ) ;
ENDSEC;
END-ISO-10303-21;
