ISO-10303-21;
HEADER;
FILE_DESCRIPTION (( 'STEP AP203' ),
    '1' );
FILE_NAME ('2376.step',
    '2021-12-06T12:58:32',
    ( '' ),
    ( '' ),
    'SwSTEP 2.0',
    'SolidWorks 2019',
    '' );
FILE_SCHEMA (( 'CONFIG_CONTROL_DESIGN' ));
ENDSEC;

DATA;
#1 = APPLICATION_PROTOCOL_DEFINITION ( 'international standard', 'config_control_design', 1994, #57 ) ;
#2 = ADVANCED_FACE ( 'NONE', ( #62, #136 ), #13, .T. ) ;
#3 = APPROVAL_ROLE ( '' ) ;
#4 = ADVANCED_BREP_SHAPE_REPRESENTATION ( '2376', ( #68, #58 ), #65 ) ;
#5 = EDGE_CURVE ( 'NONE', #137, #137, #84, .T. ) ;
#6 = CLOSED_SHELL ( 'NONE', ( #40, #129, #2, #127 ) ) ;
#7 = APPROVAL_ROLE ( '' ) ;
#8 = DATE_AND_TIME ( #83, #55 ) ;
#9 = ORIENTED_EDGE ( 'NONE', *, *, #160, .T. ) ;
#10 = PERSON_AND_ORGANIZATION ( #70, #144 ) ;
#11 = EDGE_LOOP ( 'NONE', ( #71 ) ) ;
#12 = CARTESIAN_POINT ( 'NONE',  ( 3.491481338843133355E-15, 4.000000000000000000, 1.000000000000000000 ) ) ;
#13 = PLANE ( 'NONE',  #112 ) ;
#14 = DIRECTION ( 'NONE',  ( -3.491481338843133355E-15, -3.775030183294623136E-16, -1.000000000000000000 ) ) ;
#15 = PERSON_AND_ORGANIZATION ( #70, #144 ) ;
#16 = DIRECTION ( 'NONE',  ( -3.491481338843133355E-15, -3.775030183294623136E-16, -1.000000000000000000 ) ) ;
#17 = AXIS2_PLACEMENT_3D ( 'NONE', #79, #25, #24 ) ;
#18 = APPROVAL_STATUS ( 'not_yet_approved' ) ;
#19 = DIRECTION ( 'NONE',  ( -1.318044743854274903E-30, 1.000000000000000000, -3.775030183294623136E-16 ) ) ;
#20 = EDGE_CURVE ( 'NONE', #101, #101, #46, .T. ) ;
#21 = APPROVAL_ROLE ( '' ) ;
#22 = CALENDAR_DATE ( 2021, 6, 12 ) ;
#23 = COORDINATED_UNIVERSAL_TIME_OFFSET ( 1, 0, .AHEAD. ) ;
#24 = DIRECTION ( 'NONE',  ( -1.318044743854274903E-30, 1.000000000000000000, -3.775030183294623136E-16 ) ) ;
#25 = DIRECTION ( 'NONE',  ( -3.491481338843133355E-15, -3.775030183294623136E-16, -1.000000000000000000 ) ) ;
#26 = PERSON_AND_ORGANIZATION ( #70, #144 ) ;
#27 = CARTESIAN_POINT ( 'NONE',  ( 0.0000000000000000000, 0.0000000000000000000, 0.0000000000000000000 ) ) ;
#28 = PRODUCT ( '2376', '2376', '', ( #36 ) ) ;
#29 = CC_DESIGN_SECURITY_CLASSIFICATION ( #104, ( #128 ) ) ;
#30 = PERSON_AND_ORGANIZATION ( #70, #144 ) ;
#31 = EDGE_CURVE ( 'NONE', #155, #155, #142, .T. ) ;
#32 = PERSON_AND_ORGANIZATION_ROLE ( 'classification_officer' ) ;
#33 = AXIS2_PLACEMENT_3D ( 'NONE', #61, #14, #38 ) ;
#34 = EDGE_LOOP ( 'NONE', ( #100 ) ) ;
#35 = EDGE_LOOP ( 'NONE', ( #9 ) ) ;
#36 = MECHANICAL_CONTEXT ( 'NONE', #57, 'mechanical' ) ;
#37 = CC_DESIGN_DATE_AND_TIME_ASSIGNMENT ( #149, #132, ( #104 ) ) ;
#38 = DIRECTION ( 'NONE',  ( -1.318044743854274903E-30, 1.000000000000000000, -3.775030183294623136E-16 ) ) ;
#39 = DIRECTION ( 'NONE',  ( -1.318044743854274903E-30, 1.000000000000000000, -3.775030183294623136E-16 ) ) ;
#40 = ADVANCED_FACE ( 'NONE', ( #103, #167 ), #164, .T. ) ;
#41 = LOCAL_TIME ( 13, 58, 32.00000000000000000, #45 ) ;
#42 = PERSON_AND_ORGANIZATION_ROLE ( 'creator' ) ;
#43 = APPROVAL ( #154, 'UNSPECIFIED' ) ;
#44 = CC_DESIGN_APPROVAL ( #151, ( #104 ) ) ;
#45 = COORDINATED_UNIVERSAL_TIME_OFFSET ( 1, 0, .AHEAD. ) ;
#46 = CIRCLE ( 'NONE', #17, 15.00000000000000000 ) ;
#47 = EDGE_LOOP ( 'NONE', ( #150 ) ) ;
#48 = DIRECTION ( 'NONE',  ( -3.491481338843133355E-15, -3.775030183294623136E-16, -1.000000000000000000 ) ) ;
#49 = COORDINATED_UNIVERSAL_TIME_OFFSET ( 1, 0, .AHEAD. ) ;
#50 = CC_DESIGN_PERSON_AND_ORGANIZATION_ASSIGNMENT ( #108, #109, ( #128 ) ) ;
#51 = DIRECTION ( 'NONE',  ( -1.348150961071065097E-30, 1.000000000000000000, -3.794707603699265519E-16 ) ) ;
#52 = ORIENTED_EDGE ( 'NONE', *, *, #31, .F. ) ;
#53 = FACE_OUTER_BOUND ( 'NONE', #90, .T. ) ;
#54 = DIRECTION ( 'NONE',  ( -3.491481338843133355E-15, -3.775030183294623136E-16, -1.000000000000000000 ) ) ;
#55 = LOCAL_TIME ( 13, 58, 32.00000000000000000, #148 ) ;
#56 = APPROVAL_DATE_TIME ( #124, #77 ) ;
#57 = APPLICATION_CONTEXT ( 'configuration controlled 3d designs of mechanical parts and assemblies' ) ;
#58 = AXIS2_PLACEMENT_3D ( 'NONE', #27, #76, #152 ) ;
#59 = PERSON_AND_ORGANIZATION ( #70, #144 ) ;
#60 = CARTESIAN_POINT ( 'NONE',  ( 3.491481338843141244E-15, 4.000000000000000000, 1.000000000000002220 ) ) ;
#61 = CARTESIAN_POINT ( 'NONE',  ( 7.249246091198512929E-30, 4.000000000000000000, 2.076266600812042700E-15 ) ) ;
#62 = FACE_BOUND ( 'NONE', #47, .T. ) ;
#63 = DIRECTION ( 'NONE',  ( -3.491481338843133355E-15, -3.775030183294623136E-16, -1.000000000000000000 ) ) ;
#64 = DIRECTION ( 'NONE',  ( -1.318044743854274903E-30, 1.000000000000000000, -3.775030183294623136E-16 ) ) ;
#65 =( GEOMETRIC_REPRESENTATION_CONTEXT ( 3 ) GLOBAL_UNCERTAINTY_ASSIGNED_CONTEXT ( ( #130 ) ) GLOBAL_UNIT_ASSIGNED_CONTEXT ( ( #66, #169, #116 ) ) REPRESENTATION_CONTEXT ( 'NONE', 'WORKASPACE' ) );
#66 =( LENGTH_UNIT ( ) NAMED_UNIT ( * ) SI_UNIT ( .MILLI., .METRE. ) );
#67 = CARTESIAN_POINT ( 'NONE',  ( 0.0000000000000000000, 0.0000000000000000000, 0.0000000000000000000 ) ) ;
#68 = MANIFOLD_SOLID_BREP ( 'Corps-Déplacer/Copier1', #6 ) ;
#69 = CC_DESIGN_PERSON_AND_ORGANIZATION_ASSIGNMENT ( #30, #78, ( #28 ) ) ;
#70 = PERSON ( 'UNSPECIFIED', 'UNSPECIFIED', 'UNSPECIFIED', ('UNSPECIFIED'), ('UNSPECIFIED'), ('UNSPECIFIED') ) ;
#71 = ORIENTED_EDGE ( 'NONE', *, *, #5, .T. ) ;
#72 = CARTESIAN_POINT ( 'NONE',  ( 5.272178975417100312E-30, 5.700341153914174861E-31, 1.510012073317849255E-15 ) ) ;
#73 = APPROVAL_PERSON_ORGANIZATION ( #161, #77, #3 ) ;
#74 = ORIENTED_EDGE ( 'NONE', *, *, #160, .F. ) ;
#75 = FACE_OUTER_BOUND ( 'NONE', #135, .T. ) ;
#76 = DIRECTION ( 'NONE',  ( 0.0000000000000000000, 0.0000000000000000000, 1.000000000000000000 ) ) ;
#77 = APPROVAL ( #18, 'UNSPECIFIED' ) ;
#78 = PERSON_AND_ORGANIZATION_ROLE ( 'design_owner' ) ;
#79 = CARTESIAN_POINT ( 'NONE',  ( 1.977067115781412617E-29, 2.137627932717815485E-30, 5.662545274941934853E-15 ) ) ;
#80 = CIRCLE ( 'NONE', #134, 15.00000000000000000 ) ;
#81 = DATE_AND_TIME ( #145, #89 ) ;
#82 = COORDINATED_UNIVERSAL_TIME_OFFSET ( 1, 0, .AHEAD. ) ;
#83 = CALENDAR_DATE ( 2021, 6, 12 ) ;
#84 = CIRCLE ( 'NONE', #120, 4.000000000000000000 ) ;
#85 = APPROVAL_DATE_TIME ( #81, #151 ) ;
#86 = PRODUCT_RELATED_PRODUCT_CATEGORY ( 'detail', '', ( #28 ) ) ;
#87 = CALENDAR_DATE ( 2021, 6, 12 ) ;
#88 = EDGE_LOOP ( 'NONE', ( #98 ) ) ;
#89 = LOCAL_TIME ( 13, 58, 32.00000000000000000, #23 ) ;
#90 = EDGE_LOOP ( 'NONE', ( #153 ) ) ;
#91 = CYLINDRICAL_SURFACE ( 'NONE', #131, 4.000000000000000000 ) ;
#92 = FACE_OUTER_BOUND ( 'NONE', #35, .T. ) ;
#93 = CC_DESIGN_APPROVAL ( #77, ( #133 ) ) ;
#94 = APPROVAL_PERSON_ORGANIZATION ( #59, #151, #21 ) ;
#95 = DESIGN_CONTEXT ( 'detailed design', #138, 'design' ) ;
#96 = APPLICATION_PROTOCOL_DEFINITION ( 'international standard', 'config_control_design', 1994, #138 ) ;
#97 = APPROVAL_STATUS ( 'not_yet_approved' ) ;
#98 = ORIENTED_EDGE ( 'NONE', *, *, #5, .F. ) ;
#99 = VERTEX_POINT ( 'NONE', #125 ) ;
#100 = ORIENTED_EDGE ( 'NONE', *, *, #20, .T. ) ;
#101 = VERTEX_POINT ( 'NONE', #117 ) ;
#102 = CARTESIAN_POINT ( 'NONE',  ( 3.491481338843138877E-15, 3.775030183294629053E-16, 1.000000000000001554 ) ) ;
#103 = FACE_OUTER_BOUND ( 'NONE', #34, .T. ) ;
#104 = SECURITY_CLASSIFICATION ( '', '', #146 ) ;
#105 = DATE_TIME_ROLE ( 'creation_date' ) ;
#106 = CC_DESIGN_DATE_AND_TIME_ASSIGNMENT ( #8, #105, ( #133 ) ) ;
#107 = APPROVAL_PERSON_ORGANIZATION ( #26, #43, #7 ) ;
#108 = PERSON_AND_ORGANIZATION ( #70, #144 ) ;
#109 = PERSON_AND_ORGANIZATION_ROLE ( 'design_supplier' ) ;
#110 = LOCAL_TIME ( 13, 58, 32.00000000000000000, #82 ) ;
#111 = CC_DESIGN_PERSON_AND_ORGANIZATION_ASSIGNMENT ( #163, #42, ( #128 ) ) ;
#112 = AXIS2_PLACEMENT_3D ( 'NONE', #60, #114, #168 ) ;
#113 = SHAPE_DEFINITION_REPRESENTATION ( #140, #4 ) ;
#114 = DIRECTION ( 'NONE',  ( 3.491481338843133355E-15, 3.775030183294623136E-16, 1.000000000000000000 ) ) ;
#115 = CARTESIAN_POINT ( 'NONE',  ( 0.0000000000000000000, 0.0000000000000000000, 0.0000000000000000000 ) ) ;
#116 =( NAMED_UNIT ( * ) SI_UNIT ( $, .STERADIAN. ) SOLID_ANGLE_UNIT ( ) );
#117 = CARTESIAN_POINT ( 'NONE',  ( 2.736911063134408342E-45, 15.00000000000000000, 0.0000000000000000000 ) ) ;
#118 = CC_DESIGN_PERSON_AND_ORGANIZATION_ASSIGNMENT ( #10, #32, ( #104 ) ) ;
#119 = CC_DESIGN_APPROVAL ( #43, ( #128 ) ) ;
#120 = AXIS2_PLACEMENT_3D ( 'NONE', #72, #63, #19 ) ;
#121 = FACE_OUTER_BOUND ( 'NONE', #11, .T. ) ;
#122 = EDGE_LOOP ( 'NONE', ( #74 ) ) ;
#123 = CYLINDRICAL_SURFACE ( 'NONE', #159, 15.00000000000000000 ) ;
#124 = DATE_AND_TIME ( #158, #41 ) ;
#125 = CARTESIAN_POINT ( 'NONE',  ( 3.491481338843132566E-15, 15.00000000000000000, 1.000000000000000000 ) ) ;
#126 = CARTESIAN_POINT ( 'NONE',  ( 3.491481338843152682E-15, 3.775030183294644337E-16, 1.000000000000005551 ) ) ;
#127 = ADVANCED_FACE ( 'NONE', ( #121, #75 ), #91, .F. ) ;
#128 = PRODUCT_DEFINITION_FORMATION_WITH_SPECIFIED_SOURCE ( 'ANY', '', #28, .NOT_KNOWN. ) ;
#129 = ADVANCED_FACE ( 'NONE', ( #92, #53 ), #123, .T. ) ;
#130 = UNCERTAINTY_MEASURE_WITH_UNIT (LENGTH_MEASURE( 1.000000000000000082E-05 ), #66, 'distance_accuracy_value', 'NONE');
#131 = AXIS2_PLACEMENT_3D ( 'NONE', #67, #156, #64 ) ;
#132 = DATE_TIME_ROLE ( 'classification_date' ) ;
#133 = PRODUCT_DEFINITION ( 'UNKNOWN', '', #128, #95 ) ;
#134 = AXIS2_PLACEMENT_3D ( 'NONE', #126, #16, #157 ) ;
#135 = EDGE_LOOP ( 'NONE', ( #52 ) ) ;
#136 = FACE_OUTER_BOUND ( 'NONE', #122, .T. ) ;
#137 = VERTEX_POINT ( 'NONE', #139 ) ;
#138 = APPLICATION_CONTEXT ( 'configuration controlled 3d designs of mechanical parts and assemblies' ) ;
#139 = CARTESIAN_POINT ( 'NONE',  ( 6.842277657836020854E-46, 4.000000000000000000, 0.0000000000000000000 ) ) ;
#140 = PRODUCT_DEFINITION_SHAPE ( 'NONE', 'NONE',  #133 ) ;
#141 = CC_DESIGN_PERSON_AND_ORGANIZATION_ASSIGNMENT ( #15, #143, ( #133 ) ) ;
#142 = CIRCLE ( 'NONE', #165, 4.000000000000000000 ) ;
#143 = PERSON_AND_ORGANIZATION_ROLE ( 'creator' ) ;
#144 = ORGANIZATION ( 'UNSPECIFIED', 'UNSPECIFIED', '' ) ;
#145 = CALENDAR_DATE ( 2021, 6, 12 ) ;
#146 = SECURITY_CLASSIFICATION_LEVEL ( 'unclassified' ) ;
#147 = LOCAL_TIME ( 13, 58, 32.00000000000000000, #49 ) ;
#148 = COORDINATED_UNIVERSAL_TIME_OFFSET ( 1, 0, .AHEAD. ) ;
#149 = DATE_AND_TIME ( #22, #110 ) ;
#150 = ORIENTED_EDGE ( 'NONE', *, *, #31, .T. ) ;
#151 = APPROVAL ( #97, 'UNSPECIFIED' ) ;
#152 = DIRECTION ( 'NONE',  ( 1.000000000000000000, 0.0000000000000000000, 0.0000000000000000000 ) ) ;
#153 = ORIENTED_EDGE ( 'NONE', *, *, #20, .F. ) ;
#154 = APPROVAL_STATUS ( 'not_yet_approved' ) ;
#155 = VERTEX_POINT ( 'NONE', #12 ) ;
#156 = DIRECTION ( 'NONE',  ( -3.491481338843133355E-15, -3.775030183294623136E-16, -1.000000000000000000 ) ) ;
#157 = DIRECTION ( 'NONE',  ( -1.335311428108483466E-30, 1.000000000000000000, -3.758567531283081874E-16 ) ) ;
#158 = CALENDAR_DATE ( 2021, 6, 12 ) ;
#159 = AXIS2_PLACEMENT_3D ( 'NONE', #115, #54, #39 ) ;
#160 = EDGE_CURVE ( 'NONE', #99, #99, #80, .T. ) ;
#161 = PERSON_AND_ORGANIZATION ( #70, #144 ) ;
#162 = DATE_AND_TIME ( #87, #147 ) ;
#163 = PERSON_AND_ORGANIZATION ( #70, #144 ) ;
#164 = PLANE ( 'NONE',  #33 ) ;
#165 = AXIS2_PLACEMENT_3D ( 'NONE', #102, #48, #51 ) ;
#166 = APPROVAL_DATE_TIME ( #162, #43 ) ;
#167 = FACE_BOUND ( 'NONE', #88, .T. ) ;
#168 = DIRECTION ( 'NONE',  ( 1.318044743854274903E-30, -1.000000000000000000, 3.775030183294623136E-16 ) ) ;
#169 =( NAMED_UNIT ( * ) PLANE_ANGLE_UNIT ( ) SI_UNIT ( $, .RADIAN. ) );
ENDSEC;
END-ISO-10303-21;
