ISO-10303-21;
HEADER;
FILE_DESCRIPTION (( 'STEP AP203' ),
    '1' );
FILE_NAME ('23729.step',
    '2021-09-03T07:21:26',
    ( '' ),
    ( '' ),
    'SwSTEP 2.0',
    'SolidWorks 2019',
    '' );
FILE_SCHEMA (( 'CONFIG_CONTROL_DESIGN' ));
ENDSEC;

DATA;
#1 = DATE_AND_TIME ( #106, #279 ) ;
#2 = EDGE_CURVE ( 'NONE', #93, #160, #85, .T. ) ;
#3 = DIRECTION ( 'NONE',  ( -3.491481338843133355E-15, 1.224646799147353207E-16, -1.000000000000000000 ) ) ;
#4 = CARTESIAN_POINT ( 'NONE',  ( 3.735885032562152816E-13, 5.999999999999990230, 107.0000000000000000 ) ) ;
#5 = ORIENTED_EDGE ( 'NONE', *, *, #44, .F. ) ;
#6 = AXIS2_PLACEMENT_3D ( 'NONE', #18, #45, #20 ) ;
#7 = FACE_OUTER_BOUND ( 'NONE', #72, .T. ) ;
#8 = CARTESIAN_POINT ( 'NONE',  ( 1.291848095371959215E-13, -4.531193156845206793E-15, 37.00000000000000000 ) ) ;
#9 = SECURITY_CLASSIFICATION_LEVEL ( 'unclassified' ) ;
#10 = PLANE ( 'NONE',  #134 ) ;
#11 = DIRECTION ( 'NONE',  ( -4.402125587170830187E-31, -1.000000000000000000, -1.239088197126292296E-16 ) ) ;
#12 = APPROVAL_PERSON_ORGANIZATION ( #54, #289, #268 ) ;
#13 = CARTESIAN_POINT ( 'NONE',  ( 3.735885032562152816E-13, -1.310372075087667979E-14, 107.0000000000000000 ) ) ;
#14 = ORIENTED_EDGE ( 'NONE', *, *, #189, .T. ) ;
#15 = CLOSED_SHELL ( 'NONE', ( #183, #297, #247, #302, #144 ) ) ;
#16 = ADVANCED_FACE ( 'NONE', ( #198 ), #74, .T. ) ;
#17 = ORIENTED_EDGE ( 'NONE', *, *, #330, .T. ) ;
#18 = CARTESIAN_POINT ( 'NONE',  ( 1.291848095371959215E-13, -4.531193156845206793E-15, 37.00000000000000000 ) ) ;
#19 = LOCAL_TIME ( 9, 21, 26.00000000000000000, #53 ) ;
#20 = DIRECTION ( 'NONE',  ( 0.0000000000000000000, 1.000000000000000000, 0.0000000000000000000 ) ) ;
#21 = DIRECTION ( 'NONE',  ( 4.275831445896958607E-31, 1.000000000000000000, 1.224646799147353207E-16 ) ) ;
#22 = CALENDAR_DATE ( 2021, 3, 9 ) ;
#23 = ORIENTED_EDGE ( 'NONE', *, *, #137, .F. ) ;
#24 = AXIS2_PLACEMENT_3D ( 'NONE', #164, #138, #89 ) ;
#25 = ORIENTED_EDGE ( 'NONE', *, *, #212, .F. ) ;
#26 = VERTEX_POINT ( 'NONE', #68 ) ;
#27 = LOCAL_TIME ( 9, 21, 26.00000000000000000, #310 ) ;
#28 = SECURITY_CLASSIFICATION ( '', '', #9 ) ;
#29 = APPROVAL_PERSON_ORGANIZATION ( #260, #209, #158 ) ;
#30 = CARTESIAN_POINT ( 'NONE',  ( 1.291848095371959215E-13, -4.531193156845206793E-15, 37.00000000000000000 ) ) ;
#31 = CALENDAR_DATE ( 2021, 3, 9 ) ;
#32 = CARTESIAN_POINT ( 'NONE',  ( 1.291848095371959215E-13, 5.249159239316491775E-32, 37.00000000000000000 ) ) ;
#33 = CARTESIAN_POINT ( 'NONE',  ( 0.0000000000000000000, 0.0000000000000000000, 0.0000000000000000000 ) ) ;
#34 = CC_DESIGN_PERSON_AND_ORGANIZATION_ASSIGNMENT ( #63, #126, ( #300 ) ) ;
#35 = DIRECTION ( 'NONE',  ( -2.382254525458717469E-15, -0.7071067811865471286, -0.7071067811865479058 ) ) ;
#36 = VECTOR ( 'NONE', #127, 999.9999999999998863 ) ;
#37 = PERSON_AND_ORGANIZATION ( #149, #313 ) ;
#38 = CC_DESIGN_APPROVAL ( #209, ( #28 ) ) ;
#39 = AXIS2_PLACEMENT_3D ( 'NONE', #318, #136, #324 ) ;
#40 = ORIENTED_EDGE ( 'NONE', *, *, #189, .F. ) ;
#41 = PERSON_AND_ORGANIZATION ( #149, #313 ) ;
#42 = ORIENTED_EDGE ( 'NONE', *, *, #307, .F. ) ;
#43 = DIRECTION ( 'NONE',  ( -3.491481338843133355E-15, 1.224646799147353207E-16, -1.000000000000000000 ) ) ;
#44 = EDGE_CURVE ( 'NONE', #333, #130, #79, .T. ) ;
#45 = DIRECTION ( 'NONE',  ( -3.491481338843133355E-15, 1.224646799147353207E-16, -1.000000000000000000 ) ) ;
#46 = ORIENTED_EDGE ( 'NONE', *, *, #167, .T. ) ;
#47 = CC_DESIGN_SECURITY_CLASSIFICATION ( #28, ( #244 ) ) ;
#48 = DIRECTION ( 'NONE',  ( 4.275831445896958607E-31, 1.000000000000000000, 1.224646799147353207E-16 ) ) ;
#49 = AXIS2_PLACEMENT_3D ( 'NONE', #71, #194, #305 ) ;
#50 = DATE_AND_TIME ( #31, #108 ) ;
#51 = ORIENTED_EDGE ( 'NONE', *, *, #159, .F. ) ;
#52 = ADVANCED_BREP_SHAPE_REPRESENTATION ( '23729', ( #61, #277, #204 ), #124 ) ;
#53 = COORDINATED_UNIVERSAL_TIME_OFFSET ( 1, 0, .AHEAD. ) ;
#54 = PERSON_AND_ORGANIZATION ( #149, #313 ) ;
#55 = APPROVAL_PERSON_ORGANIZATION ( #281, #222, #169 ) ;
#56 = CALENDAR_DATE ( 2021, 3, 9 ) ;
#57 = DIRECTION ( 'NONE',  ( -3.491481338843133355E-15, 1.224646799147353207E-16, -1.000000000000000000 ) ) ;
#58 = CYLINDRICAL_SURFACE ( 'NONE', #334, 6.999999999999999112 ) ;
#59 = ORIENTED_EDGE ( 'NONE', *, *, #236, .F. ) ;
#60 = CARTESIAN_POINT ( 'NONE',  ( 2.504981684866870105E-13, -7.000000000000017764, 106.0000000000000000 ) ) ;
#61 = MANIFOLD_SOLID_BREP ( 'Corps-Déplacer/Copier1[1]', #155 ) ;
#62 = COORDINATED_UNIVERSAL_TIME_OFFSET ( 1, 0, .AHEAD. ) ;
#63 = PERSON_AND_ORGANIZATION ( #149, #313 ) ;
#64 = EDGE_LOOP ( 'NONE', ( #216, #14 ) ) ;
#65 = UNCERTAINTY_MEASURE_WITH_UNIT (LENGTH_MEASURE( 1.000000000000000082E-05 ), #76, 'distance_accuracy_value', 'NONE');
#66 = CARTESIAN_POINT ( 'NONE',  ( 1.291848095371959215E-13, -4.531193156845206793E-15, 37.00000000000000000 ) ) ;
#67 = AXIS2_PLACEMENT_3D ( 'NONE', #250, #101, #111 ) ;
#68 = CARTESIAN_POINT ( 'NONE',  ( 2.504981684866871620E-13, -6.999999999999999112, 37.00000000000000000 ) ) ;
#69 = LINE ( 'NONE', #266, #257 ) ;
#70 = DIRECTION ( 'NONE',  ( 0.0000000000000000000, 1.000000000000000000, 0.0000000000000000000 ) ) ;
#71 = CARTESIAN_POINT ( 'NONE',  ( 3.735885032562152816E-13, -1.310372075087667979E-14, 107.0000000000000000 ) ) ;
#72 = EDGE_LOOP ( 'NONE', ( #145, #173, #245 ) ) ;
#73 = EDGE_LOOP ( 'NONE', ( #42, #275, #218 ) ) ;
#74 = CONICAL_SURFACE ( 'NONE', #49, 6.000000000000003553, 0.7853981633974479459 ) ;
#75 = EDGE_LOOP ( 'NONE', ( #221, #335, #97, #40 ) ) ;
#76 =( LENGTH_UNIT ( ) NAMED_UNIT ( * ) SI_UNIT ( .MILLI., .METRE. ) );
#77 = ORIENTED_EDGE ( 'NONE', *, *, #330, .F. ) ;
#78 = DIRECTION ( 'NONE',  ( 0.0000000000000000000, 1.000000000000000000, 0.0000000000000000000 ) ) ;
#79 = CIRCLE ( 'NONE', #264, 7.000000000000003553 ) ;
#80 = PERSON_AND_ORGANIZATION_ROLE ( 'creator' ) ;
#81 = ADVANCED_FACE ( 'NONE', ( #235 ), #166, .F. ) ;
#82 = ORIENTED_EDGE ( 'NONE', *, *, #159, .T. ) ;
#83 = DIRECTION ( 'NONE',  ( -3.491481338843133355E-15, 1.224646799147353207E-16, -1.000000000000000000 ) ) ;
#84 = DIRECTION ( 'NONE',  ( -3.491481338843133355E-15, 1.224646799147353207E-16, -1.000000000000000000 ) ) ;
#85 = CIRCLE ( 'NONE', #203, 6.999999999999991118 ) ;
#86 = DIRECTION ( 'NONE',  ( 0.0000000000000000000, 1.000000000000000000, 0.0000000000000000000 ) ) ;
#87 = CONICAL_SURFACE ( 'NONE', #231, 6.999999999999991118, 1.029744258676649649 ) ;
#88 = FACE_OUTER_BOUND ( 'NONE', #306, .T. ) ;
#89 = DIRECTION ( 'NONE',  ( 4.402125587170830187E-31, 1.000000000000000000, 1.239088197126292296E-16 ) ) ;
#90 = APPLICATION_PROTOCOL_DEFINITION ( 'international standard', 'config_control_design', 1994, #284 ) ;
#91 = CARTESIAN_POINT ( 'NONE',  ( 1.468525547006336047E-14, -6.999999999999992006, 4.206024333192962317 ) ) ;
#92 = VECTOR ( 'NONE', #162, 1000.000000000000000 ) ;
#93 = VERTEX_POINT ( 'NONE', #91 ) ;
#94 = VERTEX_POINT ( 'NONE', #190 ) ;
#95 = EDGE_LOOP ( 'NONE', ( #249, #59 ) ) ;
#96 = CC_DESIGN_PERSON_AND_ORGANIZATION_ASSIGNMENT ( #37, #135, ( #28 ) ) ;
#97 = ORIENTED_EDGE ( 'NONE', *, *, #311, .T. ) ;
#98 = AXIS2_PLACEMENT_3D ( 'NONE', #170, #267, #48 ) ;
#99 = VERTEX_POINT ( 'NONE', #177 ) ;
#100 = CARTESIAN_POINT ( 'NONE',  ( 1.468525547006336362E-14, -5.150894236780643255E-16, 4.206024333192963205 ) ) ;
#101 = DIRECTION ( 'NONE',  ( -3.491481338843133355E-15, 1.224646799147353207E-16, -1.000000000000000000 ) ) ;
#102 = DIRECTION ( 'NONE',  ( -4.275831445896958607E-31, -1.000000000000000000, -1.224646799147353207E-16 ) ) ;
#103 = AXIS2_PLACEMENT_3D ( 'NONE', #197, #152, #102 ) ;
#104 = CARTESIAN_POINT ( 'NONE',  ( 3.735885032562152816E-13, -1.310372075087667979E-14, 107.0000000000000000 ) ) ;
#105 = APPLICATION_PROTOCOL_DEFINITION ( 'international standard', 'config_control_design', 1994, #248 ) ;
#106 = CALENDAR_DATE ( 2021, 3, 9 ) ;
#107 = EDGE_CURVE ( 'NONE', #333, #26, #69, .T. ) ;
#108 = LOCAL_TIME ( 9, 21, 26.00000000000000000, #195 ) ;
#109 = CARTESIAN_POINT ( 'NONE',  ( 3.735885032562152816E-13, 4.499279347985555855E-32, 107.0000000000000000 ) ) ;
#110 = MECHANICAL_CONTEXT ( 'NONE', #284, 'mechanical' ) ;
#111 = DIRECTION ( 'NONE',  ( 4.275831445896958607E-31, 1.000000000000000000, 1.224646799147353207E-16 ) ) ;
#112 = DIRECTION ( 'NONE',  ( 4.275831445896958607E-31, 1.000000000000000000, 1.224646799147353207E-16 ) ) ;
#113 = CC_DESIGN_PERSON_AND_ORGANIZATION_ASSIGNMENT ( #263, #80, ( #244 ) ) ;
#114 = FACE_OUTER_BOUND ( 'NONE', #151, .T. ) ;
#115 = CONICAL_SURFACE ( 'NONE', #39, 6.000000000000003553, 0.7853981633974479459 ) ;
#116 = FACE_OUTER_BOUND ( 'NONE', #225, .T. ) ;
#117 = CARTESIAN_POINT ( 'NONE',  ( 1.554250822946650966E-14, 6.999999999999990230, 4.206024333192964093 ) ) ;
#118 = EDGE_CURVE ( 'NONE', #282, #130, #227, .T. ) ;
#119 = ORIENTED_EDGE ( 'NONE', *, *, #128, .F. ) ;
#120 = AXIS2_PLACEMENT_3D ( 'NONE', #317, #84, #185 ) ;
#121 = ORIENTED_EDGE ( 'NONE', *, *, #118, .F. ) ;
#122 = CC_DESIGN_PERSON_AND_ORGANIZATION_ASSIGNMENT ( #41, #328, ( #181 ) ) ;
#123 = ORIENTED_EDGE ( 'NONE', *, *, #285, .F. ) ;
#124 =( GEOMETRIC_REPRESENTATION_CONTEXT ( 3 ) GLOBAL_UNCERTAINTY_ASSIGNED_CONTEXT ( ( #65 ) ) GLOBAL_UNIT_ASSIGNED_CONTEXT ( ( #76, #131, #205 ) ) REPRESENTATION_CONTEXT ( 'NONE', 'WORKASPACE' ) );
#125 = VERTEX_POINT ( 'NONE', #210 ) ;
#126 = PERSON_AND_ORGANIZATION_ROLE ( 'design_owner' ) ;
#127 = DIRECTION ( 'NONE',  ( -2.468850131082266527E-15, 0.7071067811865473507, -0.7071067811865477948 ) ) ;
#128 = EDGE_CURVE ( 'NONE', #130, #333, #208, .T. ) ;
#129 = AXIS2_PLACEMENT_3D ( 'NONE', #188, #239, #287 ) ;
#130 = VERTEX_POINT ( 'NONE', #290 ) ;
#131 =( NAMED_UNIT ( * ) PLANE_ANGLE_UNIT ( ) SI_UNIT ( $, .RADIAN. ) );
#132 = APPROVAL_STATUS ( 'not_yet_approved' ) ;
#133 = DIRECTION ( 'NONE',  ( 4.275831445896958607E-31, 1.000000000000000000, 1.224646799147353207E-16 ) ) ;
#134 = AXIS2_PLACEMENT_3D ( 'NONE', #32, #140, #323 ) ;
#135 = PERSON_AND_ORGANIZATION_ROLE ( 'classification_officer' ) ;
#136 = DIRECTION ( 'NONE',  ( -3.491481338843133355E-15, 1.224646799147353207E-16, -1.000000000000000000 ) ) ;
#137 = EDGE_CURVE ( 'NONE', #160, #93, #251, .T. ) ;
#138 = DIRECTION ( 'NONE',  ( -3.491481338843133355E-15, 1.224646799147353207E-16, -1.000000000000000000 ) ) ;
#139 = CARTESIAN_POINT ( 'NONE',  ( 1.468525547006336362E-14, -5.150894236780643255E-16, 4.206024333192963205 ) ) ;
#140 = DIRECTION ( 'NONE',  ( 3.491481338843133355E-15, -1.224646799147353207E-16, 1.000000000000000000 ) ) ;
#141 = AXIS2_PLACEMENT_3D ( 'NONE', #66, #43, #269 ) ;
#142 = EDGE_LOOP ( 'NONE', ( #327, #246, #180, #336 ) ) ;
#143 = DATE_AND_TIME ( #273, #312 ) ;
#144 = ADVANCED_FACE ( 'NONE', ( #88 ), #10, .T. ) ;
#145 = ORIENTED_EDGE ( 'NONE', *, *, #202, .F. ) ;
#146 = AXIS2_PLACEMENT_3D ( 'NONE', #13, #57, #295 ) ;
#147 = CARTESIAN_POINT ( 'NONE',  ( 1.291848095371959215E-13, 6.999999999999990230, 37.00000000000000000 ) ) ;
#148 = DIRECTION ( 'NONE',  ( 1.903218546456022717E-15, 0.8571673007021097801, 0.5150380749100585964 ) ) ;
#149 = PERSON ( 'UNSPECIFIED', 'UNSPECIFIED', 'UNSPECIFIED', ('UNSPECIFIED'), ('UNSPECIFIED'), ('UNSPECIFIED') ) ;
#150 = COORDINATED_UNIVERSAL_TIME_OFFSET ( 1, 0, .AHEAD. ) ;
#151 = EDGE_LOOP ( 'NONE', ( #77, #193, #154, #207 ) ) ;
#152 = DIRECTION ( 'NONE',  ( 3.491481338843133355E-15, -1.224646799147353207E-16, 1.000000000000000000 ) ) ;
#153 = DATE_AND_TIME ( #22, #19 ) ;
#154 = ORIENTED_EDGE ( 'NONE', *, *, #285, .T. ) ;
#155 = CLOSED_SHELL ( 'NONE', ( #259, #206, #229, #254, #16, #81 ) ) ;
#156 = FACE_OUTER_BOUND ( 'NONE', #304, .T. ) ;
#157 = VECTOR ( 'NONE', #192, 1000.000000000000000 ) ;
#158 = APPROVAL_ROLE ( '' ) ;
#159 = EDGE_CURVE ( 'NONE', #99, #333, #325, .T. ) ;
#160 = VERTEX_POINT ( 'NONE', #238 ) ;
#161 = DIRECTION ( 'NONE',  ( -3.491481338843133355E-15, 1.224646799147353207E-16, -1.000000000000000000 ) ) ;
#162 = DIRECTION ( 'NONE',  ( 1.798245827342160317E-15, -0.8571673007021098911, 0.5150380749100582634 ) ) ;
#163 = AXIS2_PLACEMENT_3D ( 'NONE', #104, #309, #78 ) ;
#164 = CARTESIAN_POINT ( 'NONE',  ( 1.468525547006336362E-14, -5.150894236780643255E-16, 4.206024333192963205 ) ) ;
#165 = FACE_OUTER_BOUND ( 'NONE', #73, .T. ) ;
#166 = PLANE ( 'NONE',  #196 ) ;
#167 = EDGE_CURVE ( 'NONE', #282, #99, #270, .T. ) ;
#168 = CIRCLE ( 'NONE', #6, 6.999999999999994671 ) ;
#169 = APPROVAL_ROLE ( '' ) ;
#170 = CARTESIAN_POINT ( 'NONE',  ( 0.0000000000000000000, 0.0000000000000000000, 0.0000000000000000000 ) ) ;
#171 = LINE ( 'NONE', #329, #157 ) ;
#172 = CC_DESIGN_DATE_AND_TIME_ASSIGNMENT ( #153, #223, ( #181 ) ) ;
#173 = ORIENTED_EDGE ( 'NONE', *, *, #307, .T. ) ;
#174 = CARTESIAN_POINT ( 'NONE',  ( 3.700970219173721104E-13, -1.298125607096194306E-14, 106.0000000000000000 ) ) ;
#175 = ORIENTED_EDGE ( 'NONE', *, *, #199, .F. ) ;
#176 = CYLINDRICAL_SURFACE ( 'NONE', #67, 6.999999999999992895 ) ;
#177 = CARTESIAN_POINT ( 'NONE',  ( 3.726387830062394619E-13, -6.000000000000016875, 107.0000000000000000 ) ) ;
#178 = ORIENTED_EDGE ( 'NONE', *, *, #118, .T. ) ;
#179 = CC_DESIGN_APPROVAL ( #222, ( #244 ) ) ;
#180 = ORIENTED_EDGE ( 'NONE', *, *, #316, .F. ) ;
#181 = PRODUCT_DEFINITION ( 'UNKNOWN', '', #244, #265 ) ;
#182 = VECTOR ( 'NONE', #148, 999.9999999999998863 ) ;
#183 = ADVANCED_FACE ( 'NONE', ( #156 ), #176, .T. ) ;
#184 = DIRECTION ( 'NONE',  ( 0.0000000000000000000, 0.0000000000000000000, 1.000000000000000000 ) ) ;
#185 = DIRECTION ( 'NONE',  ( 0.0000000000000000000, 1.000000000000000000, 0.0000000000000000000 ) ) ;
#186 = CARTESIAN_POINT ( 'NONE',  ( 2.993082012127868047E-30, 6.999999999999992895, 8.572527594031464315E-16 ) ) ;
#187 = CIRCLE ( 'NONE', #337, 6.999999999999994671 ) ;
#188 = CARTESIAN_POINT ( 'NONE',  ( 1.468525547006336362E-14, -5.150894236780643255E-16, 4.206024333192963205 ) ) ;
#189 = EDGE_CURVE ( 'NONE', #26, #125, #296, .T. ) ;
#190 = CARTESIAN_POINT ( 'NONE',  ( 0.0000000000000000000, 0.0000000000000000000, 0.0000000000000000000 ) ) ;
#191 = VECTOR ( 'NONE', #83, 1000.000000000000000 ) ;
#192 = DIRECTION ( 'NONE',  ( -3.491481338843133355E-15, 1.224646799147353207E-16, -1.000000000000000000 ) ) ;
#193 = ORIENTED_EDGE ( 'NONE', *, *, #199, .T. ) ;
#194 = DIRECTION ( 'NONE',  ( -3.491481338843133355E-15, 1.224646799147353207E-16, -1.000000000000000000 ) ) ;
#195 = COORDINATED_UNIVERSAL_TIME_OFFSET ( 1, 0, .AHEAD. ) ;
#196 = AXIS2_PLACEMENT_3D ( 'NONE', #109, #161, #112 ) ;
#197 = CARTESIAN_POINT ( 'NONE',  ( 1.291848095371959215E-13, 5.249159239316491775E-32, 37.00000000000000000 ) ) ;
#198 = FACE_OUTER_BOUND ( 'NONE', #308, .T. ) ;
#199 = EDGE_CURVE ( 'NONE', #219, #226, #187, .T. ) ;
#200 = PERSON_AND_ORGANIZATION_ROLE ( 'design_supplier' ) ;
#201 = CIRCLE ( 'NONE', #141, 6.999999999999994671 ) ;
#202 = EDGE_CURVE ( 'NONE', #94, #93, #261, .T. ) ;
#203 = AXIS2_PLACEMENT_3D ( 'NONE', #100, #217, #331 ) ;
#204 = AXIS2_PLACEMENT_3D ( 'NONE', #315, #184, #321 ) ;
#205 =( NAMED_UNIT ( * ) SI_UNIT ( $, .STERADIAN. ) SOLID_ANGLE_UNIT ( ) );
#206 = ADVANCED_FACE ( 'NONE', ( #276 ), #301, .T. ) ;
#207 = ORIENTED_EDGE ( 'NONE', *, *, #2, .F. ) ;
#208 = CIRCLE ( 'NONE', #120, 7.000000000000003553 ) ;
#209 = APPROVAL ( #253, 'UNSPECIFIED' ) ;
#210 = CARTESIAN_POINT ( 'NONE',  ( 1.291848095371959215E-13, 6.999999999999990230, 37.00000000000000000 ) ) ;
#211 = ORIENTED_EDGE ( 'NONE', *, *, #236, .T. ) ;
#212 = EDGE_CURVE ( 'NONE', #226, #219, #201, .T. ) ;
#213 = CIRCLE ( 'NONE', #163, 6.000000000000003553 ) ;
#214 = DIRECTION ( 'NONE',  ( -3.491481338843133355E-15, 1.224646799147353207E-16, -1.000000000000000000 ) ) ;
#215 = PRODUCT_DEFINITION_SHAPE ( 'NONE', 'NONE',  #181 ) ;
#216 = ORIENTED_EDGE ( 'NONE', *, *, #316, .T. ) ;
#217 = DIRECTION ( 'NONE',  ( -3.491481338843133355E-15, 1.224646799147353207E-16, -1.000000000000000000 ) ) ;
#218 = ORIENTED_EDGE ( 'NONE', *, *, #2, .T. ) ;
#219 = VERTEX_POINT ( 'NONE', #241 ) ;
#220 = LINE ( 'NONE', #224, #242 ) ;
#221 = ORIENTED_EDGE ( 'NONE', *, *, #107, .F. ) ;
#222 = APPROVAL ( #299, 'UNSPECIFIED' ) ;
#223 = DATE_TIME_ROLE ( 'creation_date' ) ;
#224 = CARTESIAN_POINT ( 'NONE',  ( 8.572527594031434733E-16, -6.999999999999992895, -8.572527594031493897E-16 ) ) ;
#225 = EDGE_LOOP ( 'NONE', ( #46, #82, #119, #121 ) ) ;
#226 = VERTEX_POINT ( 'NONE', #147 ) ;
#227 = LINE ( 'NONE', #4, #36 ) ;
#228 = CARTESIAN_POINT ( 'NONE',  ( 3.735885032562152816E-13, 5.999999999999990230, 107.0000000000000000 ) ) ;
#229 = ADVANCED_FACE ( 'NONE', ( #303 ), #332, .F. ) ;
#230 = DIRECTION ( 'NONE',  ( 0.0000000000000000000, 1.000000000000000000, 0.0000000000000000000 ) ) ;
#231 = AXIS2_PLACEMENT_3D ( 'NONE', #139, #234, #11 ) ;
#232 = LINE ( 'NONE', #186, #191 ) ;
#233 = APPROVAL_DATE_TIME ( #256, #209 ) ;
#234 = DIRECTION ( 'NONE',  ( 3.491481338843133355E-15, -1.224646799147353207E-16, 1.000000000000000000 ) ) ;
#235 = FACE_OUTER_BOUND ( 'NONE', #95, .T. ) ;
#236 = EDGE_CURVE ( 'NONE', #99, #282, #213, .T. ) ;
#237 = VECTOR ( 'NONE', #35, 1000.000000000000000 ) ;
#238 = CARTESIAN_POINT ( 'NONE',  ( 1.554250822946650966E-14, 6.999999999999990230, 4.206024333192964093 ) ) ;
#239 = DIRECTION ( 'NONE',  ( 3.491481338843133355E-15, -1.224646799147353207E-16, 1.000000000000000000 ) ) ;
#240 = CC_DESIGN_DATE_AND_TIME_ASSIGNMENT ( #1, #286, ( #28 ) ) ;
#241 = CARTESIAN_POINT ( 'NONE',  ( 7.279228526303275390E-14, -6.999999999999999112, 37.00000000000000000 ) ) ;
#242 = VECTOR ( 'NONE', #3, 1000.000000000000000 ) ;
#243 = ORIENTED_EDGE ( 'NONE', *, *, #212, .T. ) ;
#244 = PRODUCT_DEFINITION_FORMATION_WITH_SPECIFIED_SOURCE ( 'ANY', '', #300, .NOT_KNOWN. ) ;
#245 = ORIENTED_EDGE ( 'NONE', *, *, #137, .T. ) ;
#246 = ORIENTED_EDGE ( 'NONE', *, *, #107, .T. ) ;
#247 = ADVANCED_FACE ( 'NONE', ( #165 ), #322, .T. ) ;
#248 = APPLICATION_CONTEXT ( 'configuration controlled 3d designs of mechanical parts and assemblies' ) ;
#249 = ORIENTED_EDGE ( 'NONE', *, *, #167, .F. ) ;
#250 = CARTESIAN_POINT ( 'NONE',  ( 0.0000000000000000000, 0.0000000000000000000, 0.0000000000000000000 ) ) ;
#251 = CIRCLE ( 'NONE', #24, 6.999999999999991118 ) ;
#252 = LINE ( 'NONE', #117, #182 ) ;
#253 = APPROVAL_STATUS ( 'not_yet_approved' ) ;
#254 = ADVANCED_FACE ( 'NONE', ( #314 ), #58, .T. ) ;
#255 = DIRECTION ( 'NONE',  ( -3.491481338843133355E-15, 1.224646799147353207E-16, -1.000000000000000000 ) ) ;
#256 = DATE_AND_TIME ( #56, #27 ) ;
#257 = VECTOR ( 'NONE', #214, 1000.000000000000000 ) ;
#258 = PERSON_AND_ORGANIZATION ( #149, #313 ) ;
#259 = ADVANCED_FACE ( 'NONE', ( #116 ), #115, .T. ) ;
#260 = PERSON_AND_ORGANIZATION ( #149, #313 ) ;
#261 = LINE ( 'NONE', #294, #92 ) ;
#262 = CARTESIAN_POINT ( 'NONE',  ( 3.743232913357036420E-13, -6.000000000000016875, 107.0000000000000000 ) ) ;
#263 = PERSON_AND_ORGANIZATION ( #149, #313 ) ;
#264 = AXIS2_PLACEMENT_3D ( 'NONE', #174, #291, #230 ) ;
#265 = DESIGN_CONTEXT ( 'detailed design', #248, 'design' ) ;
#266 = CARTESIAN_POINT ( 'NONE',  ( 8.572527594031441635E-16, -6.999999999999999112, -8.572527594031500800E-16 ) ) ;
#267 = DIRECTION ( 'NONE',  ( -3.491481338843133355E-15, 1.224646799147353207E-16, -1.000000000000000000 ) ) ;
#268 = APPROVAL_ROLE ( '' ) ;
#269 = DIRECTION ( 'NONE',  ( 0.0000000000000000000, 1.000000000000000000, 0.0000000000000000000 ) ) ;
#270 = CIRCLE ( 'NONE', #146, 6.000000000000003553 ) ;
#271 = CC_DESIGN_PERSON_AND_ORGANIZATION_ASSIGNMENT ( #258, #200, ( #244 ) ) ;
#272 = DIRECTION ( 'NONE',  ( -3.491481338843133355E-15, 1.224646799147353207E-16, -1.000000000000000000 ) ) ;
#273 = CALENDAR_DATE ( 2021, 3, 9 ) ;
#274 = DIRECTION ( 'NONE',  ( -3.491481338843133355E-15, 1.224646799147353207E-16, -1.000000000000000000 ) ) ;
#275 = ORIENTED_EDGE ( 'NONE', *, *, #202, .T. ) ;
#276 = FACE_OUTER_BOUND ( 'NONE', #142, .T. ) ;
#277 = MANIFOLD_SOLID_BREP ( 'Corps-Déplacer/Copier1[2]', #15 ) ;
#278 = AXIS2_PLACEMENT_3D ( 'NONE', #33, #274, #21 ) ;
#279 = LOCAL_TIME ( 9, 21, 26.00000000000000000, #62 ) ;
#280 = APPROVAL_DATE_TIME ( #50, #222 ) ;
#281 = PERSON_AND_ORGANIZATION ( #149, #313 ) ;
#282 = VERTEX_POINT ( 'NONE', #228 ) ;
#283 = AXIS2_PLACEMENT_3D ( 'NONE', #30, #272, #70 ) ;
#284 = APPLICATION_CONTEXT ( 'configuration controlled 3d designs of mechanical parts and assemblies' ) ;
#285 = EDGE_CURVE ( 'NONE', #226, #160, #232, .T. ) ;
#286 = DATE_TIME_ROLE ( 'classification_date' ) ;
#287 = DIRECTION ( 'NONE',  ( -4.402125587170830187E-31, -1.000000000000000000, -1.239088197126292296E-16 ) ) ;
#288 = SHAPE_DEFINITION_REPRESENTATION ( #215, #52 ) ;
#289 = APPROVAL ( #132, 'UNSPECIFIED' ) ;
#290 = CARTESIAN_POINT ( 'NONE',  ( 3.700970219173721104E-13, 6.999999999999990230, 106.0000000000000000 ) ) ;
#291 = DIRECTION ( 'NONE',  ( -3.491481338843133355E-15, 1.224646799147353207E-16, -1.000000000000000000 ) ) ;
#292 = CC_DESIGN_APPROVAL ( #289, ( #181 ) ) ;
#293 = CARTESIAN_POINT ( 'NONE',  ( 0.0000000000000000000, 0.0000000000000000000, 0.0000000000000000000 ) ) ;
#294 = CARTESIAN_POINT ( 'NONE',  ( 1.468525547006336047E-14, -6.999999999999992006, 4.206024333192962317 ) ) ;
#295 = DIRECTION ( 'NONE',  ( 0.0000000000000000000, 1.000000000000000000, 0.0000000000000000000 ) ) ;
#296 = CIRCLE ( 'NONE', #283, 6.999999999999994671 ) ;
#297 = ADVANCED_FACE ( 'NONE', ( #7 ), #87, .T. ) ;
#298 = APPROVAL_DATE_TIME ( #143, #289 ) ;
#299 = APPROVAL_STATUS ( 'not_yet_approved' ) ;
#300 = PRODUCT ( '23729', '23729', '', ( #110 ) ) ;
#301 = CYLINDRICAL_SURFACE ( 'NONE', #98, 6.999999999999999112 ) ;
#302 = ADVANCED_FACE ( 'NONE', ( #114 ), #320, .T. ) ;
#303 = FACE_OUTER_BOUND ( 'NONE', #64, .T. ) ;
#304 = EDGE_LOOP ( 'NONE', ( #243, #17, #23, #123 ) ) ;
#305 = DIRECTION ( 'NONE',  ( 0.0000000000000000000, 1.000000000000000000, 0.0000000000000000000 ) ) ;
#306 = EDGE_LOOP ( 'NONE', ( #25, #175 ) ) ;
#307 = EDGE_CURVE ( 'NONE', #94, #160, #252, .T. ) ;
#308 = EDGE_LOOP ( 'NONE', ( #51, #211, #178, #5 ) ) ;
#309 = DIRECTION ( 'NONE',  ( -3.491481338843133355E-15, 1.224646799147353207E-16, -1.000000000000000000 ) ) ;
#310 = COORDINATED_UNIVERSAL_TIME_OFFSET ( 1, 0, .AHEAD. ) ;
#311 = EDGE_CURVE ( 'NONE', #130, #125, #171, .T. ) ;
#312 = LOCAL_TIME ( 9, 21, 26.00000000000000000, #150 ) ;
#313 = ORGANIZATION ( 'UNSPECIFIED', 'UNSPECIFIED', '' ) ;
#314 = FACE_OUTER_BOUND ( 'NONE', #75, .T. ) ;
#315 = CARTESIAN_POINT ( 'NONE',  ( 0.0000000000000000000, 0.0000000000000000000, 0.0000000000000000000 ) ) ;
#316 = EDGE_CURVE ( 'NONE', #125, #26, #168, .T. ) ;
#317 = CARTESIAN_POINT ( 'NONE',  ( 3.700970219173721104E-13, -1.298125607096194306E-14, 106.0000000000000000 ) ) ;
#318 = CARTESIAN_POINT ( 'NONE',  ( 3.735885032562152816E-13, -1.310372075087667979E-14, 107.0000000000000000 ) ) ;
#319 = DIRECTION ( 'NONE',  ( -3.491481338843133355E-15, 1.224646799147353207E-16, -1.000000000000000000 ) ) ;
#320 = CYLINDRICAL_SURFACE ( 'NONE', #278, 6.999999999999992895 ) ;
#321 = DIRECTION ( 'NONE',  ( 1.000000000000000000, 0.0000000000000000000, 0.0000000000000000000 ) ) ;
#322 = CONICAL_SURFACE ( 'NONE', #129, 6.999999999999991118, 1.029744258676649649 ) ;
#323 = DIRECTION ( 'NONE',  ( -4.275831445896958607E-31, -1.000000000000000000, -1.224646799147353207E-16 ) ) ;
#324 = DIRECTION ( 'NONE',  ( 0.0000000000000000000, 1.000000000000000000, 0.0000000000000000000 ) ) ;
#325 = LINE ( 'NONE', #262, #237 ) ;
#326 = PRODUCT_RELATED_PRODUCT_CATEGORY ( 'detail', '', ( #300 ) ) ;
#327 = ORIENTED_EDGE ( 'NONE', *, *, #128, .T. ) ;
#328 = PERSON_AND_ORGANIZATION_ROLE ( 'creator' ) ;
#329 = CARTESIAN_POINT ( 'NONE',  ( 2.993082012127870849E-30, 6.999999999999999112, 8.572527594031472204E-16 ) ) ;
#330 = EDGE_CURVE ( 'NONE', #219, #93, #220, .T. ) ;
#331 = DIRECTION ( 'NONE',  ( 4.402125587170830187E-31, 1.000000000000000000, 1.239088197126292296E-16 ) ) ;
#332 = PLANE ( 'NONE',  #103 ) ;
#333 = VERTEX_POINT ( 'NONE', #60 ) ;
#334 = AXIS2_PLACEMENT_3D ( 'NONE', #293, #255, #133 ) ;
#335 = ORIENTED_EDGE ( 'NONE', *, *, #44, .T. ) ;
#336 = ORIENTED_EDGE ( 'NONE', *, *, #311, .F. ) ;
#337 = AXIS2_PLACEMENT_3D ( 'NONE', #8, #319, #86 ) ;
ENDSEC;
END-ISO-10303-21;
