ISO-10303-21;
HEADER;
FILE_DESCRIPTION (( 'STEP AP203' ),
    '1' );
FILE_NAME ('23586.step',
    '2021-11-24T08:55:42',
    ( '' ),
    ( '' ),
    'SwSTEP 2.0',
    'SolidWorks 2019',
    '' );
FILE_SCHEMA (( 'CONFIG_CONTROL_DESIGN' ));
ENDSEC;

DATA;
#1 = FACE_OUTER_BOUND ( 'NONE', #108, .T. ) ;
#2 = APPLICATION_PROTOCOL_DEFINITION ( 'international standard', 'config_control_design', 1994, #48 ) ;
#3 = CARTESIAN_POINT ( 'NONE',  ( 0.0000000000000000000, 0.0000000000000000000, 0.0000000000000000000 ) ) ;
#4 = LOCAL_TIME ( 9, 55, 42.00000000000000000, #121 ) ;
#5 = PERSON_AND_ORGANIZATION_ROLE ( 'creator' ) ;
#6 = AXIS2_PLACEMENT_3D ( 'NONE', #178, #51, #27 ) ;
#7 = CC_DESIGN_PERSON_AND_ORGANIZATION_ASSIGNMENT ( #26, #76, ( #109 ) ) ;
#8 = AXIS2_PLACEMENT_3D ( 'NONE', #86, #98, #12 ) ;
#9 = DIRECTION ( 'NONE',  ( -4.275831445896958607E-31, -1.000000000000000000, -1.224646799147353207E-16 ) ) ;
#10 = PERSON_AND_ORGANIZATION ( #20, #164 ) ;
#11 = ORIENTED_EDGE ( 'NONE', *, *, #55, .F. ) ;
#12 = DIRECTION ( 'NONE',  ( 4.275831445896958607E-31, 1.000000000000000000, 1.224646799147353207E-16 ) ) ;
#13 = DIRECTION ( 'NONE',  ( 1.000000000000000000, 0.0000000000000000000, 0.0000000000000000000 ) ) ;
#14 =( GEOMETRIC_REPRESENTATION_CONTEXT ( 3 ) GLOBAL_UNCERTAINTY_ASSIGNED_CONTEXT ( ( #160 ) ) GLOBAL_UNIT_ASSIGNED_CONTEXT ( ( #161, #113, #32 ) ) REPRESENTATION_CONTEXT ( 'NONE', 'WORKASPACE' ) );
#15 = MANIFOLD_SOLID_BREP ( 'Corps-Déplacer/Copier1[2]', #68 ) ;
#16 = CARTESIAN_POINT ( 'NONE',  ( 1.209484614510997471E-14, 1.999999999999995337, 3.464101615137796575 ) ) ;
#17 = DIRECTION ( 'NONE',  ( -3.491481338843133355E-15, 1.224646799147353207E-16, -1.000000000000000000 ) ) ;
#18 = VERTEX_POINT ( 'NONE', #16 ) ;
#19 = APPLICATION_PROTOCOL_DEFINITION ( 'international standard', 'config_control_design', 1994, #83 ) ;
#20 = PERSON ( 'UNSPECIFIED', 'UNSPECIFIED', 'UNSPECIFIED', ('UNSPECIFIED'), ('UNSPECIFIED'), ('UNSPECIFIED') ) ;
#21 = APPROVAL_STATUS ( 'not_yet_approved' ) ;
#22 = DATE_AND_TIME ( #91, #151 ) ;
#23 = DATE_AND_TIME ( #118, #4 ) ;
#24 = ORIENTED_EDGE ( 'NONE', *, *, #55, .T. ) ;
#25 = EDGE_CURVE ( 'NONE', #69, #69, #38, .T. ) ;
#26 = PERSON_AND_ORGANIZATION ( #20, #164 ) ;
#27 = DIRECTION ( 'NONE',  ( 0.0000000000000000000, 1.000000000000000000, 0.0000000000000000000 ) ) ;
#28 = CARTESIAN_POINT ( 'NONE',  ( 1.209484614510997313E-14, -4.242300954899678442E-16, 3.464101615137796131 ) ) ;
#29 = AXIS2_PLACEMENT_3D ( 'NONE', #145, #17, #45 ) ;
#30 = DIRECTION ( 'NONE',  ( -3.491481338843133355E-15, 1.224646799147353207E-16, -1.000000000000000000 ) ) ;
#31 = ADVANCED_FACE ( 'NONE', ( #77 ), #52, .F. ) ;
#32 =( NAMED_UNIT ( * ) SI_UNIT ( $, .STERADIAN. ) SOLID_ANGLE_UNIT ( ) );
#33 = DIRECTION ( 'NONE',  ( 0.0000000000000000000, 0.0000000000000000000, 1.000000000000000000 ) ) ;
#34 = PERSON_AND_ORGANIZATION_ROLE ( 'design_owner' ) ;
#35 = PLANE ( 'NONE',  #8 ) ;
#36 = APPROVAL_PERSON_ORGANIZATION ( #106, #42, #81 ) ;
#37 = CC_DESIGN_PERSON_AND_ORGANIZATION_ASSIGNMENT ( #89, #5, ( #90 ) ) ;
#38 = CIRCLE ( 'NONE', #6, 1.600000000000001421 ) ;
#39 = SECURITY_CLASSIFICATION_LEVEL ( 'unclassified' ) ;
#40 = CARTESIAN_POINT ( 'NONE',  ( 1.209484614510997471E-14, 1.499759782661853776E-32, 3.464101615137796575 ) ) ;
#41 = APPROVAL_STATUS ( 'not_yet_approved' ) ;
#42 = APPROVAL ( #41, 'UNSPECIFIED' ) ;
#43 = AXIS2_PLACEMENT_3D ( 'NONE', #28, #30, #105 ) ;
#44 = DESIGN_CONTEXT ( 'detailed design', #83, 'design' ) ;
#45 = DIRECTION ( 'NONE',  ( 7.703719777548960053E-31, 1.000000000000000000, 2.168404344971013552E-16 ) ) ;
#46 = CIRCLE ( 'NONE', #72, 2.000000000000001332 ) ;
#47 = DIRECTION ( 'NONE',  ( -7.703719777548960053E-31, -1.000000000000000000, -2.168404344971013552E-16 ) ) ;
#48 = APPLICATION_CONTEXT ( 'configuration controlled 3d designs of mechanical parts and assemblies' ) ;
#49 = COORDINATED_UNIVERSAL_TIME_OFFSET ( 1, 0, .AHEAD. ) ;
#50 = CONICAL_SURFACE ( 'NONE', #58, 1.999999999999995781, 0.5235987755982928205 ) ;
#51 = DIRECTION ( 'NONE',  ( -3.491481338843133355E-15, 1.224646799147353207E-16, -1.000000000000000000 ) ) ;
#52 = PLANE ( 'NONE',  #128 ) ;
#53 = DATE_TIME_ROLE ( 'classification_date' ) ;
#54 = ORIENTED_EDGE ( 'NONE', *, *, #147, .F. ) ;
#55 = EDGE_CURVE ( 'NONE', #18, #18, #131, .T. ) ;
#56 = ORIENTED_EDGE ( 'NONE', *, *, #25, .T. ) ;
#57 = VERTEX_POINT ( 'NONE', #67 ) ;
#58 = AXIS2_PLACEMENT_3D ( 'NONE', #183, #146, #47 ) ;
#59 = PRODUCT_RELATED_PRODUCT_CATEGORY ( 'detail', '', ( #130 ) ) ;
#60 = CARTESIAN_POINT ( 'NONE',  ( 1.745740669421566678E-13, -6.123233995736766085E-15, 50.00000000000000000 ) ) ;
#61 = APPROVAL_ROLE ( '' ) ;
#62 = PERSON_AND_ORGANIZATION ( #20, #164 ) ;
#63 = ADVANCED_FACE ( 'NONE', ( #65 ), #167, .T. ) ;
#64 = EDGE_LOOP ( 'NONE', ( #154 ) ) ;
#65 = FACE_OUTER_BOUND ( 'NONE', #169, .T. ) ;
#66 = ADVANCED_BREP_SHAPE_REPRESENTATION ( '23586', ( #133, #15, #152 ), #14 ) ;
#67 = CARTESIAN_POINT ( 'NONE',  ( 1.731774744066194397E-13, 1.999999999999995337, 49.60000000000000853 ) ) ;
#68 = CLOSED_SHELL ( 'NONE', ( #162, #63 ) ) ;
#69 = VERTEX_POINT ( 'NONE', #112 ) ;
#70 = FACE_OUTER_BOUND ( 'NONE', #96, .T. ) ;
#71 = CC_DESIGN_PERSON_AND_ORGANIZATION_ASSIGNMENT ( #10, #137, ( #80 ) ) ;
#72 = AXIS2_PLACEMENT_3D ( 'NONE', #110, #163, #173 ) ;
#73 = CC_DESIGN_DATE_AND_TIME_ASSIGNMENT ( #181, #53, ( #80 ) ) ;
#74 = DATE_AND_TIME ( #115, #117 ) ;
#75 = ORIENTED_EDGE ( 'NONE', *, *, #136, .F. ) ;
#76 = PERSON_AND_ORGANIZATION_ROLE ( 'design_supplier' ) ;
#77 = FACE_OUTER_BOUND ( 'NONE', #135, .T. ) ;
#78 = DIRECTION ( 'NONE',  ( -4.275831445896958607E-31, -1.000000000000000000, -1.224646799147353207E-16 ) ) ;
#79 = ORIENTED_EDGE ( 'NONE', *, *, #136, .T. ) ;
#80 = SECURITY_CLASSIFICATION ( '', '', #39 ) ;
#81 = APPROVAL_ROLE ( '' ) ;
#82 = MECHANICAL_CONTEXT ( 'NONE', #48, 'mechanical' ) ;
#83 = APPLICATION_CONTEXT ( 'configuration controlled 3d designs of mechanical parts and assemblies' ) ;
#84 = DIRECTION ( 'NONE',  ( -3.491481338843133355E-15, 1.224646799147353207E-16, -1.000000000000000000 ) ) ;
#85 = AXIS2_PLACEMENT_3D ( 'NONE', #3, #141, #99 ) ;
#86 = CARTESIAN_POINT ( 'NONE',  ( 1.745740669421566678E-13, 1.199807826129478012E-32, 50.00000000000000000 ) ) ;
#87 = APPROVAL_DATE_TIME ( #104, #42 ) ;
#88 = FACE_OUTER_BOUND ( 'NONE', #139, .T. ) ;
#89 = PERSON_AND_ORGANIZATION ( #20, #164 ) ;
#90 = PRODUCT_DEFINITION ( 'UNKNOWN', '', #109, #44 ) ;
#91 = CALENDAR_DATE ( 2021, 24, 11 ) ;
#92 = CC_DESIGN_APPROVAL ( #103, ( #109 ) ) ;
#93 = ADVANCED_FACE ( 'NONE', ( #1, #101 ), #126, .T. ) ;
#94 = EDGE_LOOP ( 'NONE', ( #56 ) ) ;
#95 = ADVANCED_FACE ( 'NONE', ( #114 ), #35, .F. ) ;
#96 = EDGE_LOOP ( 'NONE', ( #11 ) ) ;
#97 = CIRCLE ( 'NONE', #29, 1.999999999999995781 ) ;
#98 = DIRECTION ( 'NONE',  ( -3.491481338843133355E-15, 1.224646799147353207E-16, -1.000000000000000000 ) ) ;
#99 = DIRECTION ( 'NONE',  ( 4.275831445896957731E-31, 1.000000000000000000, 1.224646799147353207E-16 ) ) ;
#100 = FACE_OUTER_BOUND ( 'NONE', #107, .T. ) ;
#101 = FACE_BOUND ( 'NONE', #94, .T. ) ;
#102 = COORDINATED_UNIVERSAL_TIME_OFFSET ( 1, 0, .AHEAD. ) ;
#103 = APPROVAL ( #21, 'UNSPECIFIED' ) ;
#104 = DATE_AND_TIME ( #177, #134 ) ;
#105 = DIRECTION ( 'NONE',  ( 7.703719777548960053E-31, 1.000000000000000000, 2.168404344971013552E-16 ) ) ;
#106 = PERSON_AND_ORGANIZATION ( #20, #164 ) ;
#107 = EDGE_LOOP ( 'NONE', ( #182 ) ) ;
#108 = EDGE_LOOP ( 'NONE', ( #54 ) ) ;
#109 = PRODUCT_DEFINITION_FORMATION_WITH_SPECIFIED_SOURCE ( 'ANY', '', #130, .NOT_KNOWN. ) ;
#110 = CARTESIAN_POINT ( 'NONE',  ( 1.731774744066194397E-13, -6.074248123770872657E-15, 49.60000000000000853 ) ) ;
#111 = CARTESIAN_POINT ( 'NONE',  ( 1.209484614510997471E-14, 1.999999999999995337, 3.464101615137796575 ) ) ;
#112 = CARTESIAN_POINT ( 'NONE',  ( 1.745740669421566678E-13, 1.599999999999995204, 50.00000000000000000 ) ) ;
#113 =( NAMED_UNIT ( * ) PLANE_ANGLE_UNIT ( ) SI_UNIT ( $, .RADIAN. ) );
#114 = FACE_OUTER_BOUND ( 'NONE', #64, .T. ) ;
#115 = CALENDAR_DATE ( 2021, 24, 11 ) ;
#116 = PRODUCT_DEFINITION_SHAPE ( 'NONE', 'NONE',  #90 ) ;
#117 = LOCAL_TIME ( 9, 55, 42.00000000000000000, #49 ) ;
#118 = CALENDAR_DATE ( 2021, 24, 11 ) ;
#119 = CC_DESIGN_DATE_AND_TIME_ASSIGNMENT ( #74, #165, ( #90 ) ) ;
#120 = APPROVAL_DATE_TIME ( #23, #142 ) ;
#121 = COORDINATED_UNIVERSAL_TIME_OFFSET ( 1, 0, .AHEAD. ) ;
#122 = CC_DESIGN_APPROVAL ( #142, ( #90 ) ) ;
#123 = PERSON_AND_ORGANIZATION ( #20, #164 ) ;
#124 = CC_DESIGN_SECURITY_CLASSIFICATION ( #80, ( #109 ) ) ;
#125 = CALENDAR_DATE ( 2021, 24, 11 ) ;
#126 = CONICAL_SURFACE ( 'NONE', #171, 1.600000000000001421, 0.7853981633974512766 ) ;
#127 = CYLINDRICAL_SURFACE ( 'NONE', #85, 1.999999999999998224 ) ;
#128 = AXIS2_PLACEMENT_3D ( 'NONE', #138, #170, #9 ) ;
#129 = CC_DESIGN_APPROVAL ( #42, ( #80 ) ) ;
#130 = PRODUCT ( '23586', '23586', '', ( #82 ) ) ;
#131 = CIRCLE ( 'NONE', #43, 1.999999999999995781 ) ;
#132 = APPROVAL_DATE_TIME ( #22, #103 ) ;
#133 = MANIFOLD_SOLID_BREP ( 'Corps-Déplacer/Copier1[1]', #166 ) ;
#134 = LOCAL_TIME ( 9, 55, 42.00000000000000000, #140 ) ;
#135 = EDGE_LOOP ( 'NONE', ( #24 ) ) ;
#136 = EDGE_CURVE ( 'NONE', #155, #155, #97, .T. ) ;
#137 = PERSON_AND_ORGANIZATION_ROLE ( 'classification_officer' ) ;
#138 = CARTESIAN_POINT ( 'NONE',  ( 1.209484614510997471E-14, 1.499759782661853776E-32, 3.464101615137796575 ) ) ;
#139 = EDGE_LOOP ( 'NONE', ( #79 ) ) ;
#140 = COORDINATED_UNIVERSAL_TIME_OFFSET ( 1, 0, .AHEAD. ) ;
#141 = DIRECTION ( 'NONE',  ( -3.491481338843133355E-15, 1.224646799147353207E-16, -1.000000000000000000 ) ) ;
#142 = APPROVAL ( #148, 'UNSPECIFIED' ) ;
#143 = APPROVAL_PERSON_ORGANIZATION ( #62, #142, #61 ) ;
#144 = DIRECTION ( 'NONE',  ( 0.0000000000000000000, 1.000000000000000000, 0.0000000000000000000 ) ) ;
#145 = CARTESIAN_POINT ( 'NONE',  ( 1.209484614510997313E-14, -4.242300954899678442E-16, 3.464101615137796131 ) ) ;
#146 = DIRECTION ( 'NONE',  ( 3.491481338843133355E-15, -1.224646799147353207E-16, 1.000000000000000000 ) ) ;
#147 = EDGE_CURVE ( 'NONE', #57, #57, #46, .T. ) ;
#148 = APPROVAL_STATUS ( 'not_yet_approved' ) ;
#149 = PERSON_AND_ORGANIZATION ( #20, #164 ) ;
#150 = CC_DESIGN_PERSON_AND_ORGANIZATION_ASSIGNMENT ( #123, #168, ( #109 ) ) ;
#151 = LOCAL_TIME ( 9, 55, 42.00000000000000000, #102 ) ;
#152 = AXIS2_PLACEMENT_3D ( 'NONE', #157, #33, #13 ) ;
#153 = DIRECTION ( 'NONE',  ( 3.491481338843133355E-15, -1.224646799147353207E-16, 1.000000000000000000 ) ) ;
#154 = ORIENTED_EDGE ( 'NONE', *, *, #25, .F. ) ;
#155 = VERTEX_POINT ( 'NONE', #111 ) ;
#156 = SHAPE_DEFINITION_REPRESENTATION ( #116, #66 ) ;
#157 = CARTESIAN_POINT ( 'NONE',  ( 0.0000000000000000000, 0.0000000000000000000, 0.0000000000000000000 ) ) ;
#158 = PERSON_AND_ORGANIZATION ( #20, #164 ) ;
#159 = AXIS2_PLACEMENT_3D ( 'NONE', #40, #153, #78 ) ;
#160 = UNCERTAINTY_MEASURE_WITH_UNIT (LENGTH_MEASURE( 1.000000000000000082E-05 ), #161, 'distance_accuracy_value', 'NONE');
#161 =( LENGTH_UNIT ( ) NAMED_UNIT ( * ) SI_UNIT ( .MILLI., .METRE. ) );
#162 = ADVANCED_FACE ( 'NONE', ( #88 ), #50, .T. ) ;
#163 = DIRECTION ( 'NONE',  ( -3.491481338843133355E-15, 1.224646799147353207E-16, -1.000000000000000000 ) ) ;
#164 = ORGANIZATION ( 'UNSPECIFIED', 'UNSPECIFIED', '' ) ;
#165 = DATE_TIME_ROLE ( 'creation_date' ) ;
#166 = CLOSED_SHELL ( 'NONE', ( #31, #176, #93, #95 ) ) ;
#167 = PLANE ( 'NONE',  #159 ) ;
#168 = PERSON_AND_ORGANIZATION_ROLE ( 'creator' ) ;
#169 = EDGE_LOOP ( 'NONE', ( #75 ) ) ;
#170 = DIRECTION ( 'NONE',  ( 3.491481338843133355E-15, -1.224646799147353207E-16, 1.000000000000000000 ) ) ;
#171 = AXIS2_PLACEMENT_3D ( 'NONE', #60, #84, #144 ) ;
#172 = CC_DESIGN_PERSON_AND_ORGANIZATION_ASSIGNMENT ( #158, #34, ( #130 ) ) ;
#173 = DIRECTION ( 'NONE',  ( 0.0000000000000000000, 1.000000000000000000, 0.0000000000000000000 ) ) ;
#174 = LOCAL_TIME ( 9, 55, 42.00000000000000000, #179 ) ;
#175 = APPROVAL_ROLE ( '' ) ;
#176 = ADVANCED_FACE ( 'NONE', ( #70, #100 ), #127, .T. ) ;
#177 = CALENDAR_DATE ( 2021, 24, 11 ) ;
#178 = CARTESIAN_POINT ( 'NONE',  ( 1.745740669421566678E-13, -6.123233995736766085E-15, 50.00000000000000000 ) ) ;
#179 = COORDINATED_UNIVERSAL_TIME_OFFSET ( 1, 0, .AHEAD. ) ;
#180 = APPROVAL_PERSON_ORGANIZATION ( #149, #103, #175 ) ;
#181 = DATE_AND_TIME ( #125, #174 ) ;
#182 = ORIENTED_EDGE ( 'NONE', *, *, #147, .T. ) ;
#183 = CARTESIAN_POINT ( 'NONE',  ( 1.209484614510997313E-14, -4.242300954899678442E-16, 3.464101615137796131 ) ) ;
ENDSEC;
END-ISO-10303-21;
