ISO-10303-21;
HEADER;
FILE_DESCRIPTION (( 'STEP AP203' ),
    '1' );
FILE_NAME ('23585.step',
    '2021-11-24T08:55:41',
    ( '' ),
    ( '' ),
    'SwSTEP 2.0',
    'SolidWorks 2019',
    '' );
FILE_SCHEMA (( 'CONFIG_CONTROL_DESIGN' ));
ENDSEC;

DATA;
#1 = APPROVAL_PERSON_ORGANIZATION ( #40, #126, #41 ) ;
#2 = DIRECTION ( 'NONE',  ( 4.275831445896958607E-31, 1.000000000000000000, 1.224646799147353207E-16 ) ) ;
#3 = CYLINDRICAL_SURFACE ( 'NONE', #29, 1.499999999999996447 ) ;
#4 = VERTEX_POINT ( 'NONE', #80 ) ;
#5 = CARTESIAN_POINT ( 'NONE',  ( 1.316288464743861212E-13, -4.616918432785521081E-15, 37.69999999999999574 ) ) ;
#6 = CONICAL_SURFACE ( 'NONE', #16, 1.199999999999998845, 0.7853981633974450594 ) ;
#7 = PERSON_AND_ORGANIZATION_ROLE ( 'classification_officer' ) ;
#8 = AXIS2_PLACEMENT_3D ( 'NONE', #98, #142, #118 ) ;
#9 = DATE_AND_TIME ( #143, #22 ) ;
#10 = APPROVAL_STATUS ( 'not_yet_approved' ) ;
#11 = AXIS2_PLACEMENT_3D ( 'NONE', #34, #161, #2 ) ;
#12 = DIRECTION ( 'NONE',  ( -3.491481338843133355E-15, 1.224646799147353207E-16, -1.000000000000000000 ) ) ;
#13 = ADVANCED_BREP_SHAPE_REPRESENTATION ( '23585', ( #82, #26, #8 ), #164 ) ;
#14 = DIRECTION ( 'NONE',  ( 0.0000000000000000000, 1.000000000000000000, 0.0000000000000000000 ) ) ;
#15 = DIRECTION ( 'NONE',  ( 4.275831445896958607E-31, 1.000000000000000000, 1.224646799147352961E-16 ) ) ;
#16 = AXIS2_PLACEMENT_3D ( 'NONE', #109, #30, #50 ) ;
#17 = APPROVAL ( #144, 'UNSPECIFIED' ) ;
#18 = PLANE ( 'NONE',  #11 ) ;
#19 = DIRECTION ( 'NONE',  ( 3.491481338843133355E-15, -1.224646799147353207E-16, 1.000000000000000000 ) ) ;
#20 = SECURITY_CLASSIFICATION ( '', '', #38 ) ;
#21 = APPROVAL_ROLE ( '' ) ;
#22 = LOCAL_TIME ( 9, 55, 41.00000000000000000, #155 ) ;
#23 = ADVANCED_FACE ( 'NONE', ( #107 ), #134, .T. ) ;
#24 = CC_DESIGN_APPROVAL ( #126, ( #106 ) ) ;
#25 = PERSON_AND_ORGANIZATION ( #48, #183 ) ;
#26 = MANIFOLD_SOLID_BREP ( 'Corps-Déplacer/Copier1[2]', #61 ) ;
#27 = CIRCLE ( 'NONE', #170, 1.199999999999998845 ) ;
#28 = DESIGN_CONTEXT ( 'detailed design', #108, 'design' ) ;
#29 = AXIS2_PLACEMENT_3D ( 'NONE', #62, #35, #15 ) ;
#30 = DIRECTION ( 'NONE',  ( -3.491481338843133355E-15, 1.224646799147353207E-16, -1.000000000000000000 ) ) ;
#31 = CC_DESIGN_PERSON_AND_ORGANIZATION_ASSIGNMENT ( #68, #53, ( #77 ) ) ;
#32 = CARTESIAN_POINT ( 'NONE',  ( 9.071134608832468803E-15, -3.181725716174755011E-16, 2.598076211353343989 ) ) ;
#33 = AXIS2_PLACEMENT_3D ( 'NONE', #96, #79, #64 ) ;
#34 = CARTESIAN_POINT ( 'NONE',  ( 1.326762908760390423E-13, 8.998558695971069014E-33, 38.00000000000000000 ) ) ;
#35 = DIRECTION ( 'NONE',  ( -3.491481338843133355E-15, 1.224646799147353207E-16, -1.000000000000000000 ) ) ;
#36 = LOCAL_TIME ( 9, 55, 41.00000000000000000, #84 ) ;
#37 = APPROVAL_DATE_TIME ( #156, #126 ) ;
#38 = SECURITY_CLASSIFICATION_LEVEL ( 'unclassified' ) ;
#39 = PRODUCT_DEFINITION ( 'UNKNOWN', '', #106, #28 ) ;
#40 = PERSON_AND_ORGANIZATION ( #48, #183 ) ;
#41 = APPROVAL_ROLE ( '' ) ;
#42 = SHAPE_DEFINITION_REPRESENTATION ( #43, #13 ) ;
#43 = PRODUCT_DEFINITION_SHAPE ( 'NONE', 'NONE',  #39 ) ;
#44 = CC_DESIGN_APPROVAL ( #17, ( #20 ) ) ;
#45 = CARTESIAN_POINT ( 'NONE',  ( 9.071134608832468803E-15, -3.181725716174755011E-16, 2.598076211353343989 ) ) ;
#46 = DIRECTION ( 'NONE',  ( -4.275831445896958607E-31, -1.000000000000000000, -1.224646799147353207E-16 ) ) ;
#47 = DIRECTION ( 'NONE',  ( 0.0000000000000000000, 1.000000000000000000, 0.0000000000000000000 ) ) ;
#48 = PERSON ( 'UNSPECIFIED', 'UNSPECIFIED', 'UNSPECIFIED', ('UNSPECIFIED'), ('UNSPECIFIED'), ('UNSPECIFIED') ) ;
#49 = CIRCLE ( 'NONE', #166, 1.499999999999994227 ) ;
#50 = DIRECTION ( 'NONE',  ( 0.0000000000000000000, 1.000000000000000000, 0.0000000000000000000 ) ) ;
#51 = CALENDAR_DATE ( 2021, 24, 11 ) ;
#52 = EDGE_CURVE ( 'NONE', #138, #138, #27, .T. ) ;
#53 = PERSON_AND_ORGANIZATION_ROLE ( 'design_owner' ) ;
#54 = COORDINATED_UNIVERSAL_TIME_OFFSET ( 1, 0, .AHEAD. ) ;
#55 = EDGE_LOOP ( 'NONE', ( #103 ) ) ;
#56 = EDGE_LOOP ( 'NONE', ( #176 ) ) ;
#57 = AXIS2_PLACEMENT_3D ( 'NONE', #112, #151, #46 ) ;
#58 = EDGE_CURVE ( 'NONE', #94, #94, #69, .T. ) ;
#59 = ORIENTED_EDGE ( 'NONE', *, *, #72, .T. ) ;
#60 = ORIENTED_EDGE ( 'NONE', *, *, #58, .F. ) ;
#61 = CLOSED_SHELL ( 'NONE', ( #177, #23 ) ) ;
#62 = CARTESIAN_POINT ( 'NONE',  ( 0.0000000000000000000, 0.0000000000000000000, 0.0000000000000000000 ) ) ;
#63 = FACE_BOUND ( 'NONE', #56, .T. ) ;
#64 = DIRECTION ( 'NONE',  ( 0.0000000000000000000, 1.000000000000000000, 0.0000000000000000000 ) ) ;
#65 = VERTEX_POINT ( 'NONE', #125 ) ;
#66 = CALENDAR_DATE ( 2021, 24, 11 ) ;
#67 = CALENDAR_DATE ( 2021, 24, 11 ) ;
#68 = PERSON_AND_ORGANIZATION ( #48, #183 ) ;
#69 = CIRCLE ( 'NONE', #88, 1.499999999999998446 ) ;
#70 = APPROVAL_DATE_TIME ( #154, #146 ) ;
#71 = ORIENTED_EDGE ( 'NONE', *, *, #58, .T. ) ;
#72 = EDGE_CURVE ( 'NONE', #4, #4, #49, .T. ) ;
#73 = CC_DESIGN_DATE_AND_TIME_ASSIGNMENT ( #9, #86, ( #20 ) ) ;
#74 = AXIS2_PLACEMENT_3D ( 'NONE', #32, #19, #97 ) ;
#75 = ADVANCED_FACE ( 'NONE', ( #111 ), #18, .F. ) ;
#76 = FACE_OUTER_BOUND ( 'NONE', #92, .T. ) ;
#77 = PRODUCT ( '23585', '23585', '', ( #180 ) ) ;
#78 = CIRCLE ( 'NONE', #33, 1.499999999999994227 ) ;
#79 = DIRECTION ( 'NONE',  ( -3.491481338843133355E-15, 1.224646799147353207E-16, -1.000000000000000000 ) ) ;
#80 = CARTESIAN_POINT ( 'NONE',  ( 9.071134608832468803E-15, 1.499999999999994005, 2.598076211353343989 ) ) ;
#81 = PERSON_AND_ORGANIZATION ( #48, #183 ) ;
#82 = MANIFOLD_SOLID_BREP ( 'Corps-Déplacer/Copier1[1]', #115 ) ;
#83 = PERSON_AND_ORGANIZATION ( #48, #183 ) ;
#84 = COORDINATED_UNIVERSAL_TIME_OFFSET ( 1, 0, .AHEAD. ) ;
#85 = LOCAL_TIME ( 9, 55, 41.00000000000000000, #169 ) ;
#86 = DATE_TIME_ROLE ( 'classification_date' ) ;
#87 = ORIENTED_EDGE ( 'NONE', *, *, #160, .F. ) ;
#88 = AXIS2_PLACEMENT_3D ( 'NONE', #5, #150, #14 ) ;
#89 = ADVANCED_FACE ( 'NONE', ( #76, #63 ), #6, .T. ) ;
#90 = EDGE_LOOP ( 'NONE', ( #123 ) ) ;
#91 = CC_DESIGN_PERSON_AND_ORGANIZATION_ASSIGNMENT ( #81, #141, ( #106 ) ) ;
#92 = EDGE_LOOP ( 'NONE', ( #60 ) ) ;
#93 = FACE_OUTER_BOUND ( 'NONE', #55, .T. ) ;
#94 = VERTEX_POINT ( 'NONE', #149 ) ;
#95 = CC_DESIGN_PERSON_AND_ORGANIZATION_ASSIGNMENT ( #83, #114, ( #106 ) ) ;
#96 = CARTESIAN_POINT ( 'NONE',  ( 9.071134608832468803E-15, -3.181725716174755011E-16, 2.598076211353343989 ) ) ;
#97 = DIRECTION ( 'NONE',  ( 0.0000000000000000000, -1.000000000000000000, 0.0000000000000000000 ) ) ;
#98 = CARTESIAN_POINT ( 'NONE',  ( 0.0000000000000000000, 0.0000000000000000000, 0.0000000000000000000 ) ) ;
#99 = APPROVAL_PERSON_ORGANIZATION ( #171, #146, #21 ) ;
#100 = COORDINATED_UNIVERSAL_TIME_OFFSET ( 1, 0, .AHEAD. ) ;
#101 = APPLICATION_PROTOCOL_DEFINITION ( 'international standard', 'config_control_design', 1994, #159 ) ;
#102 = AXIS2_PLACEMENT_3D ( 'NONE', #124, #162, #174 ) ;
#103 = ORIENTED_EDGE ( 'NONE', *, *, #160, .T. ) ;
#104 = ADVANCED_FACE ( 'NONE', ( #93 ), #163, .F. ) ;
#105 = EDGE_LOOP ( 'NONE', ( #71 ) ) ;
#106 = PRODUCT_DEFINITION_FORMATION_WITH_SPECIFIED_SOURCE ( 'ANY', '', #77, .NOT_KNOWN. ) ;
#107 = FACE_OUTER_BOUND ( 'NONE', #121, .T. ) ;
#108 = APPLICATION_CONTEXT ( 'configuration controlled 3d designs of mechanical parts and assemblies' ) ;
#109 = CARTESIAN_POINT ( 'NONE',  ( 1.326762908760390423E-13, -4.653657836759941941E-15, 38.00000000000000000 ) ) ;
#110 = LOCAL_TIME ( 9, 55, 41.00000000000000000, #100 ) ;
#111 = FACE_OUTER_BOUND ( 'NONE', #90, .T. ) ;
#112 = CARTESIAN_POINT ( 'NONE',  ( 9.071134608832468803E-15, -7.511572993685905597E-16, 2.598076211353343989 ) ) ;
#113 =( LENGTH_UNIT ( ) NAMED_UNIT ( * ) SI_UNIT ( .MILLI., .METRE. ) );
#114 = PERSON_AND_ORGANIZATION_ROLE ( 'design_supplier' ) ;
#115 = CLOSED_SHELL ( 'NONE', ( #104, #148, #89, #75 ) ) ;
#116 = PERSON_AND_ORGANIZATION ( #48, #183 ) ;
#117 = CC_DESIGN_PERSON_AND_ORGANIZATION_ASSIGNMENT ( #116, #182, ( #39 ) ) ;
#118 = DIRECTION ( 'NONE',  ( 1.000000000000000000, 0.0000000000000000000, 0.0000000000000000000 ) ) ;
#119 = UNCERTAINTY_MEASURE_WITH_UNIT (LENGTH_MEASURE( 1.000000000000000082E-05 ), #113, 'distance_accuracy_value', 'NONE');
#120 = CC_DESIGN_APPROVAL ( #146, ( #39 ) ) ;
#121 = EDGE_LOOP ( 'NONE', ( #131 ) ) ;
#122 = FACE_OUTER_BOUND ( 'NONE', #105, .T. ) ;
#123 = ORIENTED_EDGE ( 'NONE', *, *, #52, .F. ) ;
#124 = CARTESIAN_POINT ( 'NONE',  ( 9.071134608832468803E-15, -7.511572993685905597E-16, 2.598076211353343989 ) ) ;
#125 = CARTESIAN_POINT ( 'NONE',  ( 9.071134608832468803E-15, 1.499999999999994005, 2.598076211353343989 ) ) ;
#126 = APPROVAL ( #168, 'UNSPECIFIED' ) ;
#127 = DATE_AND_TIME ( #67, #85 ) ;
#128 = DATE_TIME_ROLE ( 'creation_date' ) ;
#129 = CALENDAR_DATE ( 2021, 24, 11 ) ;
#130 =( NAMED_UNIT ( * ) SI_UNIT ( $, .STERADIAN. ) SOLID_ANGLE_UNIT ( ) );
#131 = ORIENTED_EDGE ( 'NONE', *, *, #72, .F. ) ;
#132 = LOCAL_TIME ( 9, 55, 41.00000000000000000, #54 ) ;
#133 = APPROVAL_PERSON_ORGANIZATION ( #179, #17, #181 ) ;
#134 = PLANE ( 'NONE',  #102 ) ;
#135 = DIRECTION ( 'NONE',  ( 0.0000000000000000000, 1.000000000000000000, 0.0000000000000000000 ) ) ;
#136 = CC_DESIGN_PERSON_AND_ORGANIZATION_ASSIGNMENT ( #25, #7, ( #20 ) ) ;
#137 = FACE_OUTER_BOUND ( 'NONE', #165, .T. ) ;
#138 = VERTEX_POINT ( 'NONE', #175 ) ;
#139 = DIRECTION ( 'NONE',  ( -3.491481338843133355E-15, 1.224646799147353207E-16, -1.000000000000000000 ) ) ;
#140 = CONICAL_SURFACE ( 'NONE', #74, 1.499999999999994227, 0.5235987755982924874 ) ;
#141 = PERSON_AND_ORGANIZATION_ROLE ( 'creator' ) ;
#142 = DIRECTION ( 'NONE',  ( 0.0000000000000000000, 0.0000000000000000000, 1.000000000000000000 ) ) ;
#143 = CALENDAR_DATE ( 2021, 24, 11 ) ;
#144 = APPROVAL_STATUS ( 'not_yet_approved' ) ;
#145 = DATE_AND_TIME ( #66, #132 ) ;
#146 = APPROVAL ( #10, 'UNSPECIFIED' ) ;
#147 = FACE_OUTER_BOUND ( 'NONE', #178, .T. ) ;
#148 = ADVANCED_FACE ( 'NONE', ( #147, #122 ), #3, .T. ) ;
#149 = CARTESIAN_POINT ( 'NONE',  ( 1.316288464743861212E-13, 1.499999999999994005, 37.69999999999999574 ) ) ;
#150 = DIRECTION ( 'NONE',  ( -3.491481338843133355E-15, 1.224646799147353207E-16, -1.000000000000000000 ) ) ;
#151 = DIRECTION ( 'NONE',  ( 3.491481338843133355E-15, -1.224646799147353207E-16, 1.000000000000000000 ) ) ;
#152 = APPLICATION_PROTOCOL_DEFINITION ( 'international standard', 'config_control_design', 1994, #108 ) ;
#153 = CC_DESIGN_SECURITY_CLASSIFICATION ( #20, ( #106 ) ) ;
#154 = DATE_AND_TIME ( #129, #110 ) ;
#155 = COORDINATED_UNIVERSAL_TIME_OFFSET ( 1, 0, .AHEAD. ) ;
#156 = DATE_AND_TIME ( #51, #36 ) ;
#157 = CC_DESIGN_DATE_AND_TIME_ASSIGNMENT ( #127, #128, ( #39 ) ) ;
#158 = APPROVAL_DATE_TIME ( #145, #17 ) ;
#159 = APPLICATION_CONTEXT ( 'configuration controlled 3d designs of mechanical parts and assemblies' ) ;
#160 = EDGE_CURVE ( 'NONE', #65, #65, #78, .T. ) ;
#161 = DIRECTION ( 'NONE',  ( -3.491481338843133355E-15, 1.224646799147353207E-16, -1.000000000000000000 ) ) ;
#162 = DIRECTION ( 'NONE',  ( 3.491481338843133355E-15, -1.224646799147353207E-16, 1.000000000000000000 ) ) ;
#163 = PLANE ( 'NONE',  #57 ) ;
#164 =( GEOMETRIC_REPRESENTATION_CONTEXT ( 3 ) GLOBAL_UNCERTAINTY_ASSIGNED_CONTEXT ( ( #119 ) ) GLOBAL_UNIT_ASSIGNED_CONTEXT ( ( #113, #167, #130 ) ) REPRESENTATION_CONTEXT ( 'NONE', 'WORKASPACE' ) );
#165 = EDGE_LOOP ( 'NONE', ( #59 ) ) ;
#166 = AXIS2_PLACEMENT_3D ( 'NONE', #45, #139, #135 ) ;
#167 =( NAMED_UNIT ( * ) PLANE_ANGLE_UNIT ( ) SI_UNIT ( $, .RADIAN. ) );
#168 = APPROVAL_STATUS ( 'not_yet_approved' ) ;
#169 = COORDINATED_UNIVERSAL_TIME_OFFSET ( 1, 0, .AHEAD. ) ;
#170 = AXIS2_PLACEMENT_3D ( 'NONE', #173, #12, #47 ) ;
#171 = PERSON_AND_ORGANIZATION ( #48, #183 ) ;
#172 = PRODUCT_RELATED_PRODUCT_CATEGORY ( 'detail', '', ( #77 ) ) ;
#173 = CARTESIAN_POINT ( 'NONE',  ( 1.326762908760390423E-13, -4.653657836759941941E-15, 38.00000000000000000 ) ) ;
#174 = DIRECTION ( 'NONE',  ( -4.275831445896958607E-31, -1.000000000000000000, -1.224646799147353207E-16 ) ) ;
#175 = CARTESIAN_POINT ( 'NONE',  ( 1.326762908760390423E-13, 1.199999999999994182, 38.00000000000000000 ) ) ;
#176 = ORIENTED_EDGE ( 'NONE', *, *, #52, .T. ) ;
#177 = ADVANCED_FACE ( 'NONE', ( #137 ), #140, .T. ) ;
#178 = EDGE_LOOP ( 'NONE', ( #87 ) ) ;
#179 = PERSON_AND_ORGANIZATION ( #48, #183 ) ;
#180 = MECHANICAL_CONTEXT ( 'NONE', #159, 'mechanical' ) ;
#181 = APPROVAL_ROLE ( '' ) ;
#182 = PERSON_AND_ORGANIZATION_ROLE ( 'creator' ) ;
#183 = ORGANIZATION ( 'UNSPECIFIED', 'UNSPECIFIED', '' ) ;
ENDSEC;
END-ISO-10303-21;
