ISO-10303-21;
HEADER;
FILE_DESCRIPTION (( 'STEP AP203' ),
    '1' );
FILE_NAME ('225.step',
    '2021-10-06T08:24:48',
    ( '' ),
    ( '' ),
    'SwSTEP 2.0',
    'SolidWorks 2019',
    '' );
FILE_SCHEMA (( 'CONFIG_CONTROL_DESIGN' ));
ENDSEC;

DATA;
#1 = PRODUCT_DEFINITION ( 'UNKNOWN', '', #93, #69 ) ;
#2 = DIRECTION ( 'NONE',  ( 1.000000000000000000, 0.0000000000000000000, 0.0000000000000000000 ) ) ;
#3 = DATE_AND_TIME ( #35, #161 ) ;
#4 = CYLINDRICAL_SURFACE ( 'NONE', #150, 0.9999999999999961142 ) ;
#5 = EDGE_LOOP ( 'NONE', ( #101 ) ) ;
#6 = PLANE ( 'NONE',  #66 ) ;
#7 = ORIENTED_EDGE ( 'NONE', *, *, #26, .T. ) ;
#8 = PERSON_AND_ORGANIZATION ( #24, #41 ) ;
#9 = CIRCLE ( 'NONE', #54, 1.000000000000000000 ) ;
#10 = CARTESIAN_POINT ( 'NONE',  ( 2.015807690851651802E-15, -7.070501591499427093E-17, 0.5773502691896297279 ) ) ;
#11 = DIRECTION ( 'NONE',  ( 0.0000000000000000000, 1.000000000000000000, 0.0000000000000000000 ) ) ;
#12 = AXIS2_PLACEMENT_3D ( 'NONE', #83, #121, #34 ) ;
#13 = ORIENTED_EDGE ( 'NONE', *, *, #26, .F. ) ;
#14 = CC_DESIGN_APPROVAL ( #170, ( #1 ) ) ;
#15 =( LENGTH_UNIT ( ) NAMED_UNIT ( * ) SI_UNIT ( .MILLI., .METRE. ) );
#16 = CARTESIAN_POINT ( 'NONE',  ( 1.326762908760390423E-13, 0.7999999999999954925, 38.00000000000000000 ) ) ;
#17 = COORDINATED_UNIVERSAL_TIME_OFFSET ( 1, 0, .AHEAD. ) ;
#18 = CONICAL_SURFACE ( 'NONE', #129, 0.9999999999999954481, 1.047197551196592746 ) ;
#19 = APPROVAL_PERSON_ORGANIZATION ( #115, #154, #196 ) ;
#20 = DIRECTION ( 'NONE',  ( -4.275831445896958607E-31, -1.000000000000000000, -1.224646799147353207E-16 ) ) ;
#21 = SHAPE_DEFINITION_REPRESENTATION ( #96, #136 ) ;
#22 = FACE_BOUND ( 'NONE', #103, .T. ) ;
#23 = AXIS2_PLACEMENT_3D ( 'NONE', #117, #59, #134 ) ;
#24 = PERSON ( 'UNSPECIFIED', 'UNSPECIFIED', 'UNSPECIFIED', ('UNSPECIFIED'), ('UNSPECIFIED'), ('UNSPECIFIED') ) ;
#25 = AXIS2_PLACEMENT_3D ( 'NONE', #135, #31, #2 ) ;
#26 = EDGE_CURVE ( 'NONE', #79, #79, #9, .T. ) ;
#27 = COORDINATED_UNIVERSAL_TIME_OFFSET ( 1, 0, .AHEAD. ) ;
#28 = CARTESIAN_POINT ( 'NONE',  ( 1.319779946082704535E-13, 0.9999999999999954481, 37.79999999999999716 ) ) ;
#29 = CARTESIAN_POINT ( 'NONE',  ( 3.142333204958820020E-14, 0.9999999999999954481, 9.000000000000000000 ) ) ;
#30 = CALENDAR_DATE ( 2021, 6, 10 ) ;
#31 = DIRECTION ( 'NONE',  ( 0.0000000000000000000, 0.0000000000000000000, 1.000000000000000000 ) ) ;
#32 = COORDINATED_UNIVERSAL_TIME_OFFSET ( 1, 0, .AHEAD. ) ;
#33 = APPROVAL_PERSON_ORGANIZATION ( #108, #145, #52 ) ;
#34 = DIRECTION ( 'NONE',  ( -4.275831445896958607E-31, -1.000000000000000000, -1.224646799147353207E-16 ) ) ;
#35 = CALENDAR_DATE ( 2021, 6, 10 ) ;
#36 = CIRCLE ( 'NONE', #200, 0.8000000000000001554 ) ;
#37 = DIRECTION ( 'NONE',  ( 4.275831445896958607E-31, 1.000000000000000000, 1.224646799147353207E-16 ) ) ;
#38 = EDGE_LOOP ( 'NONE', ( #7 ) ) ;
#39 = DATE_AND_TIME ( #176, #72 ) ;
#40 = ADVANCED_FACE ( 'NONE', ( #68 ), #138, .F. ) ;
#41 = ORGANIZATION ( 'UNSPECIFIED', 'UNSPECIFIED', '' ) ;
#42 = UNCERTAINTY_MEASURE_WITH_UNIT (LENGTH_MEASURE( 1.000000000000000082E-05 ), #15, 'distance_accuracy_value', 'NONE');
#43 = APPROVAL_STATUS ( 'not_yet_approved' ) ;
#44 = VERTEX_POINT ( 'NONE', #95 ) ;
#45 = DIRECTION ( 'NONE',  ( 3.491481338843133355E-15, -1.224646799147353207E-16, 1.000000000000000000 ) ) ;
#46 = CC_DESIGN_PERSON_AND_ORGANIZATION_ASSIGNMENT ( #151, #186, ( #1 ) ) ;
#47 = FACE_OUTER_BOUND ( 'NONE', #165, .T. ) ;
#48 = PERSON_AND_ORGANIZATION ( #24, #41 ) ;
#49 = FACE_OUTER_BOUND ( 'NONE', #5, .T. ) ;
#50 = DIRECTION ( 'NONE',  ( 3.491481338843133355E-15, -1.224646799147353207E-16, 1.000000000000000000 ) ) ;
#51 = PERSON_AND_ORGANIZATION_ROLE ( 'creator' ) ;
#52 = APPROVAL_ROLE ( '' ) ;
#53 = CARTESIAN_POINT ( 'NONE',  ( 1.326762908760390423E-13, 5.999039130647361324E-33, 38.00000000000000000 ) ) ;
#54 = AXIS2_PLACEMENT_3D ( 'NONE', #192, #122, #98 ) ;
#55 = PERSON_AND_ORGANIZATION_ROLE ( 'design_supplier' ) ;
#56 = CONICAL_SURFACE ( 'NONE', #197, 0.8000000000000001554, 0.7853981633974510546 ) ;
#57 = FACE_OUTER_BOUND ( 'NONE', #159, .T. ) ;
#58 = ADVANCED_FACE ( 'NONE', ( #63 ), #81, .T. ) ;
#59 = DIRECTION ( 'NONE',  ( -3.491481338843133355E-15, 1.224646799147353207E-16, -1.000000000000000000 ) ) ;
#60 = CC_DESIGN_DATE_AND_TIME_ASSIGNMENT ( #174, #82, ( #1 ) ) ;
#61 =( NAMED_UNIT ( * ) SI_UNIT ( $, .STERADIAN. ) SOLID_ANGLE_UNIT ( ) );
#62 = AXIS2_PLACEMENT_3D ( 'NONE', #199, #152, #11 ) ;
#63 = FACE_OUTER_BOUND ( 'NONE', #124, .T. ) ;
#64 = CARTESIAN_POINT ( 'NONE',  ( 2.015807690851651802E-15, -7.070501591499427093E-17, 0.5773502691896297279 ) ) ;
#65 = CARTESIAN_POINT ( 'NONE',  ( 0.0000000000000000000, 0.0000000000000000000, 0.0000000000000000000 ) ) ;
#66 = AXIS2_PLACEMENT_3D ( 'NONE', #53, #128, #158 ) ;
#67 = COORDINATED_UNIVERSAL_TIME_OFFSET ( 1, 0, .AHEAD. ) ;
#68 = FACE_OUTER_BOUND ( 'NONE', #143, .T. ) ;
#69 = DESIGN_CONTEXT ( 'detailed design', #167, 'design' ) ;
#70 = FACE_OUTER_BOUND ( 'NONE', #91, .T. ) ;
#71 = EDGE_LOOP ( 'NONE', ( #13 ) ) ;
#72 = LOCAL_TIME ( 10, 24, 48.00000000000000000, #67 ) ;
#73 = APPROVAL_DATE_TIME ( #39, #145 ) ;
#74 = PRODUCT_RELATED_PRODUCT_CATEGORY ( 'detail', '', ( #127 ) ) ;
#75 = MANIFOLD_SOLID_BREP ( 'Corps-Déplacer/Copier1[1]', #175 ) ;
#76 = VERTEX_POINT ( 'NONE', #202 ) ;
#77 = COORDINATED_UNIVERSAL_TIME_OFFSET ( 1, 0, .AHEAD. ) ;
#78 = DIRECTION ( 'NONE',  ( -3.851859888774489222E-31, -1.000000000000000000, -1.084202172485509364E-16 ) ) ;
#79 = VERTEX_POINT ( 'NONE', #28 ) ;
#80 = EDGE_CURVE ( 'NONE', #44, #44, #153, .T. ) ;
#81 = PLANE ( 'NONE',  #12 ) ;
#82 = DATE_TIME_ROLE ( 'creation_date' ) ;
#83 = CARTESIAN_POINT ( 'NONE',  ( 3.142333204958820020E-14, 7.498798913309246986E-33, 9.000000000000000000 ) ) ;
#84 = CARTESIAN_POINT ( 'NONE',  ( 1.326762908760390423E-13, -4.653657836759941941E-15, 38.00000000000000000 ) ) ;
#85 = ORIENTED_EDGE ( 'NONE', *, *, #173, .T. ) ;
#86 = EDGE_LOOP ( 'NONE', ( #148 ) ) ;
#87 = ADVANCED_FACE ( 'NONE', ( #157, #22 ), #56, .T. ) ;
#88 = ORIENTED_EDGE ( 'NONE', *, *, #123, .T. ) ;
#89 = APPROVAL_DATE_TIME ( #164, #170 ) ;
#90 = CARTESIAN_POINT ( 'NONE',  ( 0.0000000000000000000, 0.0000000000000000000, 0.0000000000000000000 ) ) ;
#91 = EDGE_LOOP ( 'NONE', ( #172 ) ) ;
#92 = APPLICATION_PROTOCOL_DEFINITION ( 'international standard', 'config_control_design', 1994, #167 ) ;
#93 = PRODUCT_DEFINITION_FORMATION_WITH_SPECIFIED_SOURCE ( 'ANY', '', #127, .NOT_KNOWN. ) ;
#94 = LOCAL_TIME ( 10, 24, 48.00000000000000000, #27 ) ;
#95 = CARTESIAN_POINT ( 'NONE',  ( 2.015807690851652196E-15, 0.9999999999999954481, 0.5773502691896298389 ) ) ;
#96 = PRODUCT_DEFINITION_SHAPE ( 'NONE', 'NONE',  #1 ) ;
#97 = LOCAL_TIME ( 10, 24, 48.00000000000000000, #32 ) ;
#98 = DIRECTION ( 'NONE',  ( 0.0000000000000000000, 1.000000000000000000, 0.0000000000000000000 ) ) ;
#99 = DATE_AND_TIME ( #139, #97 ) ;
#100 = FACE_OUTER_BOUND ( 'NONE', #86, .T. ) ;
#101 = ORIENTED_EDGE ( 'NONE', *, *, #80, .F. ) ;
#102 = ADVANCED_FACE ( 'NONE', ( #49, #47 ), #4, .T. ) ;
#103 = EDGE_LOOP ( 'NONE', ( #88 ) ) ;
#104 = CALENDAR_DATE ( 2021, 6, 10 ) ;
#105 = CLOSED_SHELL ( 'NONE', ( #187, #102, #58 ) ) ;
#106 = ADVANCED_FACE ( 'NONE', ( #100 ), #6, .F. ) ;
#107 =( NAMED_UNIT ( * ) PLANE_ANGLE_UNIT ( ) SI_UNIT ( $, .RADIAN. ) );
#108 = PERSON_AND_ORGANIZATION ( #24, #41 ) ;
#109 = DIRECTION ( 'NONE',  ( -3.491481338843133355E-15, 1.224646799147353207E-16, -1.000000000000000000 ) ) ;
#110 = APPROVAL_STATUS ( 'not_yet_approved' ) ;
#111 = APPROVAL_DATE_TIME ( #99, #154 ) ;
#112 = CC_DESIGN_PERSON_AND_ORGANIZATION_ASSIGNMENT ( #8, #51, ( #93 ) ) ;
#113 = AXIS2_PLACEMENT_3D ( 'NONE', #64, #126, #191 ) ;
#114 = DIRECTION ( 'NONE',  ( 0.0000000000000000000, 1.000000000000000000, 0.0000000000000000000 ) ) ;
#115 = PERSON_AND_ORGANIZATION ( #24, #41 ) ;
#116 = CC_DESIGN_PERSON_AND_ORGANIZATION_ASSIGNMENT ( #48, #55, ( #93 ) ) ;
#117 = CARTESIAN_POINT ( 'NONE',  ( 3.142333204958820020E-14, -1.102182119232617714E-15, 9.000000000000000000 ) ) ;
#118 = APPLICATION_PROTOCOL_DEFINITION ( 'international standard', 'config_control_design', 1994, #132 ) ;
#119 = APPROVAL_ROLE ( '' ) ;
#120 = VERTEX_POINT ( 'NONE', #16 ) ;
#121 = DIRECTION ( 'NONE',  ( 3.491481338843133355E-15, -1.224646799147353207E-16, 1.000000000000000000 ) ) ;
#122 = DIRECTION ( 'NONE',  ( -3.491481338843133355E-15, 1.224646799147353207E-16, -1.000000000000000000 ) ) ;
#123 = EDGE_CURVE ( 'NONE', #120, #120, #36, .T. ) ;
#124 = EDGE_LOOP ( 'NONE', ( #160 ) ) ;
#125 = PERSON_AND_ORGANIZATION ( #24, #41 ) ;
#126 = DIRECTION ( 'NONE',  ( -3.491481338843133355E-15, 1.224646799147353207E-16, -1.000000000000000000 ) ) ;
#127 = PRODUCT ( '225', '225', '', ( #168 ) ) ;
#128 = DIRECTION ( 'NONE',  ( -3.491481338843133355E-15, 1.224646799147353207E-16, -1.000000000000000000 ) ) ;
#129 = AXIS2_PLACEMENT_3D ( 'NONE', #10, #45, #78 ) ;
#130 = CC_DESIGN_APPROVAL ( #154, ( #178 ) ) ;
#131 = APPROVAL_STATUS ( 'not_yet_approved' ) ;
#132 = APPLICATION_CONTEXT ( 'configuration controlled 3d designs of mechanical parts and assemblies' ) ;
#133 = ADVANCED_FACE ( 'NONE', ( #70, #194 ), #189, .T. ) ;
#134 = DIRECTION ( 'NONE',  ( 0.0000000000000000000, 1.000000000000000000, 0.0000000000000000000 ) ) ;
#135 = CARTESIAN_POINT ( 'NONE',  ( 0.0000000000000000000, 0.0000000000000000000, 0.0000000000000000000 ) ) ;
#136 = ADVANCED_BREP_SHAPE_REPRESENTATION ( '225', ( #75, #149, #25 ), #184 ) ;
#137 = VERTEX_POINT ( 'NONE', #29 ) ;
#138 = PLANE ( 'NONE',  #177 ) ;
#139 = CALENDAR_DATE ( 2021, 6, 10 ) ;
#140 = CIRCLE ( 'NONE', #23, 0.9999999999999965583 ) ;
#141 = PERSON_AND_ORGANIZATION_ROLE ( 'classification_officer' ) ;
#142 = CC_DESIGN_DATE_AND_TIME_ASSIGNMENT ( #3, #171, ( #178 ) ) ;
#143 = EDGE_LOOP ( 'NONE', ( #85 ) ) ;
#144 = DIRECTION ( 'NONE',  ( -3.491481338843133355E-15, 1.224646799147353207E-16, -1.000000000000000000 ) ) ;
#145 = APPROVAL ( #110, 'UNSPECIFIED' ) ;
#146 = ORIENTED_EDGE ( 'NONE', *, *, #182, .T. ) ;
#147 = CC_DESIGN_PERSON_AND_ORGANIZATION_ASSIGNMENT ( #166, #183, ( #127 ) ) ;
#148 = ORIENTED_EDGE ( 'NONE', *, *, #123, .F. ) ;
#149 = MANIFOLD_SOLID_BREP ( 'Corps-Déplacer/Copier1[2]', #105 ) ;
#150 = AXIS2_PLACEMENT_3D ( 'NONE', #65, #179, #37 ) ;
#151 = PERSON_AND_ORGANIZATION ( #24, #41 ) ;
#152 = DIRECTION ( 'NONE',  ( -3.491481338843133355E-15, 1.224646799147353207E-16, -1.000000000000000000 ) ) ;
#153 = CIRCLE ( 'NONE', #113, 0.9999999999999954481 ) ;
#154 = APPROVAL ( #131, 'UNSPECIFIED' ) ;
#155 = CARTESIAN_POINT ( 'NONE',  ( 3.142333204958820020E-14, 7.498798913309246986E-33, 9.000000000000000000 ) ) ;
#156 = SECURITY_CLASSIFICATION_LEVEL ( 'unclassified' ) ;
#157 = FACE_OUTER_BOUND ( 'NONE', #71, .T. ) ;
#158 = DIRECTION ( 'NONE',  ( 4.275831445896958607E-31, 1.000000000000000000, 1.224646799147353207E-16 ) ) ;
#159 = EDGE_LOOP ( 'NONE', ( #162 ) ) ;
#160 = ORIENTED_EDGE ( 'NONE', *, *, #182, .F. ) ;
#161 = LOCAL_TIME ( 10, 24, 48.00000000000000000, #17 ) ;
#162 = ORIENTED_EDGE ( 'NONE', *, *, #80, .T. ) ;
#163 = CC_DESIGN_PERSON_AND_ORGANIZATION_ASSIGNMENT ( #125, #141, ( #178 ) ) ;
#164 = DATE_AND_TIME ( #104, #94 ) ;
#165 = EDGE_LOOP ( 'NONE', ( #146 ) ) ;
#166 = PERSON_AND_ORGANIZATION ( #24, #41 ) ;
#167 = APPLICATION_CONTEXT ( 'configuration controlled 3d designs of mechanical parts and assemblies' ) ;
#168 = MECHANICAL_CONTEXT ( 'NONE', #132, 'mechanical' ) ;
#169 = DIRECTION ( 'NONE',  ( 4.275831445896958607E-31, 1.000000000000000000, 1.224646799147353207E-16 ) ) ;
#170 = APPROVAL ( #43, 'UNSPECIFIED' ) ;
#171 = DATE_TIME_ROLE ( 'classification_date' ) ;
#172 = ORIENTED_EDGE ( 'NONE', *, *, #173, .F. ) ;
#173 = EDGE_CURVE ( 'NONE', #76, #76, #140, .T. ) ;
#174 = DATE_AND_TIME ( #30, #181 ) ;
#175 = CLOSED_SHELL ( 'NONE', ( #40, #133, #87, #106 ) ) ;
#176 = CALENDAR_DATE ( 2021, 6, 10 ) ;
#177 = AXIS2_PLACEMENT_3D ( 'NONE', #155, #50, #20 ) ;
#178 = SECURITY_CLASSIFICATION ( '', '', #156 ) ;
#179 = DIRECTION ( 'NONE',  ( -3.491481338843133355E-15, 1.224646799147353207E-16, -1.000000000000000000 ) ) ;
#180 = CC_DESIGN_SECURITY_CLASSIFICATION ( #178, ( #93 ) ) ;
#181 = LOCAL_TIME ( 10, 24, 48.00000000000000000, #77 ) ;
#182 = EDGE_CURVE ( 'NONE', #137, #137, #188, .T. ) ;
#183 = PERSON_AND_ORGANIZATION_ROLE ( 'design_owner' ) ;
#184 =( GEOMETRIC_REPRESENTATION_CONTEXT ( 3 ) GLOBAL_UNCERTAINTY_ASSIGNED_CONTEXT ( ( #42 ) ) GLOBAL_UNIT_ASSIGNED_CONTEXT ( ( #15, #107, #61 ) ) REPRESENTATION_CONTEXT ( 'NONE', 'WORKASPACE' ) );
#185 = CC_DESIGN_APPROVAL ( #145, ( #93 ) ) ;
#186 = PERSON_AND_ORGANIZATION_ROLE ( 'creator' ) ;
#187 = ADVANCED_FACE ( 'NONE', ( #57 ), #18, .T. ) ;
#188 = CIRCLE ( 'NONE', #62, 0.9999999999999965583 ) ;
#189 = CYLINDRICAL_SURFACE ( 'NONE', #195, 0.9999999999999983347 ) ;
#190 = DIRECTION ( 'NONE',  ( 0.0000000000000000000, 1.000000000000000000, 0.0000000000000000000 ) ) ;
#191 = DIRECTION ( 'NONE',  ( 3.851859888774489222E-31, 1.000000000000000000, 1.084202172485509364E-16 ) ) ;
#192 = CARTESIAN_POINT ( 'NONE',  ( 1.319779946082704535E-13, -4.629164900776995227E-15, 37.79999999999999716 ) ) ;
#193 = CARTESIAN_POINT ( 'NONE',  ( 1.326762908760390423E-13, -4.653657836759941941E-15, 38.00000000000000000 ) ) ;
#194 = FACE_OUTER_BOUND ( 'NONE', #38, .T. ) ;
#195 = AXIS2_PLACEMENT_3D ( 'NONE', #90, #198, #169 ) ;
#196 = APPROVAL_ROLE ( '' ) ;
#197 = AXIS2_PLACEMENT_3D ( 'NONE', #193, #109, #190 ) ;
#198 = DIRECTION ( 'NONE',  ( -3.491481338843133355E-15, 1.224646799147353207E-16, -1.000000000000000000 ) ) ;
#199 = CARTESIAN_POINT ( 'NONE',  ( 3.142333204958820020E-14, -1.102182119232617714E-15, 9.000000000000000000 ) ) ;
#200 = AXIS2_PLACEMENT_3D ( 'NONE', #84, #144, #114 ) ;
#201 = APPROVAL_PERSON_ORGANIZATION ( #203, #170, #119 ) ;
#202 = CARTESIAN_POINT ( 'NONE',  ( 3.142333204958820020E-14, 0.9999999999999954481, 9.000000000000000000 ) ) ;
#203 = PERSON_AND_ORGANIZATION ( #24, #41 ) ;
ENDSEC;
END-ISO-10303-21;
