ISO-10303-21;
HEADER;
FILE_DESCRIPTION (( 'STEP AP203' ),
    '1' );
FILE_NAME ('224.step',
    '2021-10-06T08:24:46',
    ( '' ),
    ( '' ),
    'SwSTEP 2.0',
    'SolidWorks 2019',
    '' );
FILE_SCHEMA (( 'CONFIG_CONTROL_DESIGN' ));
ENDSEC;

DATA;
#1 = APPROVAL_ROLE ( '' ) ;
#2 = APPROVAL_DATE_TIME ( #42, #194 ) ;
#3 = ORIENTED_EDGE ( 'NONE', *, *, #35, .T. ) ;
#4 = PERSON_AND_ORGANIZATION_ROLE ( 'design_supplier' ) ;
#5 = PERSON ( 'UNSPECIFIED', 'UNSPECIFIED', 'UNSPECIFIED', ('UNSPECIFIED'), ('UNSPECIFIED'), ('UNSPECIFIED') ) ;
#6 = CC_DESIGN_APPROVAL ( #195, ( #32 ) ) ;
#7 = CIRCLE ( 'NONE', #181, 0.9499999999999999556 ) ;
#8 = PRODUCT_RELATED_PRODUCT_CATEGORY ( 'detail', '', ( #130 ) ) ;
#9 = FACE_OUTER_BOUND ( 'NONE', #171, .T. ) ;
#10 = AXIS2_PLACEMENT_3D ( 'NONE', #37, #55, #119 ) ;
#11 = DIRECTION ( 'NONE',  ( 0.0000000000000000000, 1.000000000000000000, 0.0000000000000000000 ) ) ;
#12 = ADVANCED_FACE ( 'NONE', ( #197 ), #169, .F. ) ;
#13 = DIRECTION ( 'NONE',  ( -3.491481338843133355E-15, 1.224646799147353207E-16, -1.000000000000000000 ) ) ;
#14 = DIRECTION ( 'NONE',  ( 0.0000000000000000000, 1.000000000000000000, 0.0000000000000000000 ) ) ;
#15 = LOCAL_TIME ( 10, 24, 46.00000000000000000, #110 ) ;
#16 = CARTESIAN_POINT ( 'NONE',  ( 3.142333204958820020E-14, 0.9499999999999952927, 9.000000000000000000 ) ) ;
#17 = DIRECTION ( 'NONE',  ( 4.054589356604726834E-31, 1.000000000000000000, 1.141265444721589181E-16 ) ) ;
#18 = APPLICATION_PROTOCOL_DEFINITION ( 'international standard', 'config_control_design', 1994, #95 ) ;
#19 =( NAMED_UNIT ( * ) PLANE_ANGLE_UNIT ( ) SI_UNIT ( $, .RADIAN. ) );
#20 = CC_DESIGN_PERSON_AND_ORGANIZATION_ASSIGNMENT ( #127, #4, ( #200 ) ) ;
#21 = SECURITY_CLASSIFICATION_LEVEL ( 'unclassified' ) ;
#22 = EDGE_LOOP ( 'NONE', ( #188 ) ) ;
#23 = APPROVAL_ROLE ( '' ) ;
#24 = EDGE_LOOP ( 'NONE', ( #67 ) ) ;
#25 = CARTESIAN_POINT ( 'NONE',  ( 0.0000000000000000000, 0.0000000000000000000, 0.0000000000000000000 ) ) ;
#26 = EDGE_LOOP ( 'NONE', ( #3 ) ) ;
#27 = UNCERTAINTY_MEASURE_WITH_UNIT (LENGTH_MEASURE( 1.000000000000000082E-05 ), #70, 'distance_accuracy_value', 'NONE');
#28 = VERTEX_POINT ( 'NONE', #16 ) ;
#29 = DIRECTION ( 'NONE',  ( 0.0000000000000000000, 1.000000000000000000, 0.0000000000000000000 ) ) ;
#30 = CARTESIAN_POINT ( 'NONE',  ( 1.326762908760390423E-13, 0.7499999999999953371, 38.00000000000000000 ) ) ;
#31 = DIRECTION ( 'NONE',  ( -3.491481338843133355E-15, 1.224646799147353207E-16, -1.000000000000000000 ) ) ;
#32 = PRODUCT_DEFINITION ( 'UNKNOWN', '', #200, #38 ) ;
#33 = APPROVAL_STATUS ( 'not_yet_approved' ) ;
#34 = APPROVAL_STATUS ( 'not_yet_approved' ) ;
#35 = EDGE_CURVE ( 'NONE', #182, #182, #7, .T. ) ;
#36 = AXIS2_PLACEMENT_3D ( 'NONE', #25, #140, #202 ) ;
#37 = CARTESIAN_POINT ( 'NONE',  ( 3.142333204958820020E-14, 7.123858967643781215E-33, 9.000000000000000000 ) ) ;
#38 = DESIGN_CONTEXT ( 'detailed design', #95, 'design' ) ;
#39 = DIRECTION ( 'NONE',  ( -3.491481338843133355E-15, 1.224646799147353207E-16, -1.000000000000000000 ) ) ;
#40 = CARTESIAN_POINT ( 'NONE',  ( 1.319779946082704535E-13, 0.9499999999999952927, 37.79999999999999716 ) ) ;
#41 = CARTESIAN_POINT ( 'NONE',  ( 3.142333204958820020E-14, 0.9499999999999952927, 9.000000000000000000 ) ) ;
#42 = DATE_AND_TIME ( #186, #15 ) ;
#43 = CC_DESIGN_DATE_AND_TIME_ASSIGNMENT ( #145, #159, ( #199 ) ) ;
#44 = DIRECTION ( 'NONE',  ( 0.0000000000000000000, 1.000000000000000000, 0.0000000000000000000 ) ) ;
#45 = PERSON_AND_ORGANIZATION ( #5, #177 ) ;
#46 = CIRCLE ( 'NONE', #50, 0.9499999999999964029 ) ;
#47 = ORIENTED_EDGE ( 'NONE', *, *, #155, .F. ) ;
#48 = AXIS2_PLACEMENT_3D ( 'NONE', #156, #185, #29 ) ;
#49 = CC_DESIGN_PERSON_AND_ORGANIZATION_ASSIGNMENT ( #109, #176, ( #32 ) ) ;
#50 = AXIS2_PLACEMENT_3D ( 'NONE', #183, #39, #44 ) ;
#51 = AXIS2_PLACEMENT_3D ( 'NONE', #198, #71, #132 ) ;
#52 = PLANE ( 'NONE',  #10 ) ;
#53 = DIRECTION ( 'NONE',  ( -4.275831445896958607E-31, -1.000000000000000000, -1.224646799147353207E-16 ) ) ;
#54 = ADVANCED_FACE ( 'NONE', ( #180, #69 ), #165, .T. ) ;
#55 = DIRECTION ( 'NONE',  ( 3.491481338843133355E-15, -1.224646799147353207E-16, 1.000000000000000000 ) ) ;
#56 = AXIS2_PLACEMENT_3D ( 'NONE', #201, #13, #14 ) ;
#57 = VERTEX_POINT ( 'NONE', #30 ) ;
#58 = DIRECTION ( 'NONE',  ( -3.491481338843133355E-15, 1.224646799147353207E-16, -1.000000000000000000 ) ) ;
#59 = DATE_AND_TIME ( #190, #62 ) ;
#60 = ORIENTED_EDGE ( 'NONE', *, *, #155, .T. ) ;
#61 = PERSON_AND_ORGANIZATION ( #5, #177 ) ;
#62 = LOCAL_TIME ( 10, 24, 46.00000000000000000, #174 ) ;
#63 = ADVANCED_FACE ( 'NONE', ( #151, #179 ), #134, .T. ) ;
#64 = AXIS2_PLACEMENT_3D ( 'NONE', #167, #154, #17 ) ;
#65 = APPROVAL_PERSON_ORGANIZATION ( #61, #164, #125 ) ;
#66 = CC_DESIGN_DATE_AND_TIME_ASSIGNMENT ( #184, #203, ( #32 ) ) ;
#67 = ORIENTED_EDGE ( 'NONE', *, *, #35, .F. ) ;
#68 = EDGE_CURVE ( 'NONE', #102, #102, #105, .T. ) ;
#69 = FACE_BOUND ( 'NONE', #93, .T. ) ;
#70 =( LENGTH_UNIT ( ) NAMED_UNIT ( * ) SI_UNIT ( .MILLI., .METRE. ) );
#71 = DIRECTION ( 'NONE',  ( 3.491481338843133355E-15, -1.224646799147353207E-16, 1.000000000000000000 ) ) ;
#72 = AXIS2_PLACEMENT_3D ( 'NONE', #87, #196, #53 ) ;
#73 = FACE_OUTER_BOUND ( 'NONE', #173, .T. ) ;
#74 = APPROVAL_DATE_TIME ( #92, #195 ) ;
#75 = CARTESIAN_POINT ( 'NONE',  ( 0.0000000000000000000, 0.0000000000000000000, 0.0000000000000000000 ) ) ;
#76 = COORDINATED_UNIVERSAL_TIME_OFFSET ( 1, 0, .AHEAD. ) ;
#77 = ORIENTED_EDGE ( 'NONE', *, *, #108, .T. ) ;
#78 = COORDINATED_UNIVERSAL_TIME_OFFSET ( 1, 0, .AHEAD. ) ;
#79 = ADVANCED_FACE ( 'NONE', ( #90, #73 ), #168, .T. ) ;
#80 = MANIFOLD_SOLID_BREP ( 'Corps-Déplacer/Copier1[1]', #175 ) ;
#81 = EDGE_CURVE ( 'NONE', #57, #57, #98, .T. ) ;
#82 = APPLICATION_CONTEXT ( 'configuration controlled 3d designs of mechanical parts and assemblies' ) ;
#83 = LOCAL_TIME ( 10, 24, 46.00000000000000000, #78 ) ;
#84 = ADVANCED_BREP_SHAPE_REPRESENTATION ( '224', ( #80, #150, #115 ), #118 ) ;
#85 = CARTESIAN_POINT ( 'NONE',  ( 1.326762908760390423E-13, 5.624099184981896238E-33, 38.00000000000000000 ) ) ;
#86 = CC_DESIGN_PERSON_AND_ORGANIZATION_ASSIGNMENT ( #45, #172, ( #130 ) ) ;
#87 = CARTESIAN_POINT ( 'NONE',  ( 3.142333204958820020E-14, 7.123858967643781215E-33, 9.000000000000000000 ) ) ;
#88 = DIRECTION ( 'NONE',  ( -3.491481338843133355E-15, 1.224646799147353207E-16, -1.000000000000000000 ) ) ;
#89 = VERTEX_POINT ( 'NONE', #41 ) ;
#90 = FACE_OUTER_BOUND ( 'NONE', #146, .T. ) ;
#91 = DIRECTION ( 'NONE',  ( 0.0000000000000000000, 1.000000000000000000, 0.0000000000000000000 ) ) ;
#92 = DATE_AND_TIME ( #97, #83 ) ;
#93 = EDGE_LOOP ( 'NONE', ( #120 ) ) ;
#94 = PERSON_AND_ORGANIZATION ( #5, #177 ) ;
#95 = APPLICATION_CONTEXT ( 'configuration controlled 3d designs of mechanical parts and assemblies' ) ;
#96 = DIRECTION ( 'NONE',  ( 0.0000000000000000000, 0.0000000000000000000, 1.000000000000000000 ) ) ;
#97 = CALENDAR_DATE ( 2021, 6, 10 ) ;
#98 = CIRCLE ( 'NONE', #48, 0.7500000000000000000 ) ;
#99 = ADVANCED_FACE ( 'NONE', ( #9 ), #117, .F. ) ;
#100 = DIRECTION ( 'NONE',  ( -3.491481338843133355E-15, 1.224646799147353207E-16, -1.000000000000000000 ) ) ;
#101 = CARTESIAN_POINT ( 'NONE',  ( 1.326762908760390423E-13, -4.653657836759941941E-15, 38.00000000000000000 ) ) ;
#102 = VERTEX_POINT ( 'NONE', #137 ) ;
#103 = APPROVAL_STATUS ( 'not_yet_approved' ) ;
#104 = EDGE_LOOP ( 'NONE', ( #47 ) ) ;
#105 = CIRCLE ( 'NONE', #64, 0.9499999999999954037 ) ;
#106 = CALENDAR_DATE ( 2021, 6, 10 ) ;
#107 = EDGE_LOOP ( 'NONE', ( #60 ) ) ;
#108 = EDGE_CURVE ( 'NONE', #89, #89, #46, .T. ) ;
#109 = PERSON_AND_ORGANIZATION ( #5, #177 ) ;
#110 = COORDINATED_UNIVERSAL_TIME_OFFSET ( 1, 0, .AHEAD. ) ;
#111 = MECHANICAL_CONTEXT ( 'NONE', #82, 'mechanical' ) ;
#112 = LOCAL_TIME ( 10, 24, 46.00000000000000000, #76 ) ;
#113 = CC_DESIGN_APPROVAL ( #164, ( #200 ) ) ;
#114 = CC_DESIGN_SECURITY_CLASSIFICATION ( #199, ( #200 ) ) ;
#115 = AXIS2_PLACEMENT_3D ( 'NONE', #75, #96, #121 ) ;
#116 = FACE_OUTER_BOUND ( 'NONE', #189, .T. ) ;
#117 = PLANE ( 'NONE',  #131 ) ;
#118 =( GEOMETRIC_REPRESENTATION_CONTEXT ( 3 ) GLOBAL_UNCERTAINTY_ASSIGNED_CONTEXT ( ( #27 ) ) GLOBAL_UNIT_ASSIGNED_CONTEXT ( ( #70, #19, #142 ) ) REPRESENTATION_CONTEXT ( 'NONE', 'WORKASPACE' ) );
#119 = DIRECTION ( 'NONE',  ( -4.275831445896958607E-31, -1.000000000000000000, -1.224646799147353207E-16 ) ) ;
#120 = ORIENTED_EDGE ( 'NONE', *, *, #81, .T. ) ;
#121 = DIRECTION ( 'NONE',  ( 1.000000000000000000, 0.0000000000000000000, 0.0000000000000000000 ) ) ;
#122 = DIRECTION ( 'NONE',  ( 4.275831445896958607E-31, 1.000000000000000000, 1.224646799147353207E-16 ) ) ;
#123 = CC_DESIGN_PERSON_AND_ORGANIZATION_ASSIGNMENT ( #94, #147, ( #200 ) ) ;
#124 = ORIENTED_EDGE ( 'NONE', *, *, #81, .F. ) ;
#125 = APPROVAL_ROLE ( '' ) ;
#126 = ORIENTED_EDGE ( 'NONE', *, *, #108, .F. ) ;
#127 = PERSON_AND_ORGANIZATION ( #5, #177 ) ;
#128 = PERSON_AND_ORGANIZATION ( #5, #177 ) ;
#129 = CC_DESIGN_APPROVAL ( #194, ( #199 ) ) ;
#130 = PRODUCT ( '224', '224', '', ( #111 ) ) ;
#131 = AXIS2_PLACEMENT_3D ( 'NONE', #85, #58, #122 ) ;
#132 = DIRECTION ( 'NONE',  ( -4.054589356604726834E-31, -1.000000000000000000, -1.141265444721589181E-16 ) ) ;
#133 = PRODUCT_DEFINITION_SHAPE ( 'NONE', 'NONE',  #32 ) ;
#134 = CYLINDRICAL_SURFACE ( 'NONE', #193, 0.9499999999999981792 ) ;
#135 = DIRECTION ( 'NONE',  ( 4.275831445896958607E-31, 1.000000000000000000, 1.224646799147353454E-16 ) ) ;
#136 = APPROVAL_PERSON_ORGANIZATION ( #128, #194, #1 ) ;
#137 = CARTESIAN_POINT ( 'NONE',  ( 1.915017306309069113E-15, 0.9499999999999952927, 0.5484827557301482637 ) ) ;
#138 = APPROVAL_DATE_TIME ( #59, #164 ) ;
#139 = APPLICATION_PROTOCOL_DEFINITION ( 'international standard', 'config_control_design', 1994, #82 ) ;
#140 = DIRECTION ( 'NONE',  ( -3.491481338843133355E-15, 1.224646799147353207E-16, -1.000000000000000000 ) ) ;
#141 = CALENDAR_DATE ( 2021, 6, 10 ) ;
#142 =( NAMED_UNIT ( * ) SI_UNIT ( $, .STERADIAN. ) SOLID_ANGLE_UNIT ( ) );
#143 = PERSON_AND_ORGANIZATION_ROLE ( 'classification_officer' ) ;
#144 = APPROVAL_PERSON_ORGANIZATION ( #170, #195, #23 ) ;
#145 = DATE_AND_TIME ( #106, #112 ) ;
#146 = EDGE_LOOP ( 'NONE', ( #191 ) ) ;
#147 = PERSON_AND_ORGANIZATION_ROLE ( 'creator' ) ;
#148 = ADVANCED_FACE ( 'NONE', ( #166 ), #187, .T. ) ;
#149 = LOCAL_TIME ( 10, 24, 46.00000000000000000, #161 ) ;
#150 = MANIFOLD_SOLID_BREP ( 'Corps-Déplacer/Copier1[2]', #152 ) ;
#151 = FACE_OUTER_BOUND ( 'NONE', #104, .T. ) ;
#152 = CLOSED_SHELL ( 'NONE', ( #148, #79, #158 ) ) ;
#153 = CARTESIAN_POINT ( 'NONE',  ( 1.319779946082704535E-13, -4.629164900776995227E-15, 37.79999999999999716 ) ) ;
#154 = DIRECTION ( 'NONE',  ( -3.491481338843133355E-15, 1.224646799147353207E-16, -1.000000000000000000 ) ) ;
#155 = EDGE_CURVE ( 'NONE', #28, #28, #163, .T. ) ;
#156 = CARTESIAN_POINT ( 'NONE',  ( 1.326762908760390423E-13, -4.653657836759941941E-15, 38.00000000000000000 ) ) ;
#157 = CARTESIAN_POINT ( 'NONE',  ( 0.0000000000000000000, 0.0000000000000000000, 0.0000000000000000000 ) ) ;
#158 = ADVANCED_FACE ( 'NONE', ( #116 ), #52, .T. ) ;
#159 = DATE_TIME_ROLE ( 'classification_date' ) ;
#160 = PERSON_AND_ORGANIZATION ( #5, #177 ) ;
#161 = COORDINATED_UNIVERSAL_TIME_OFFSET ( 1, 0, .AHEAD. ) ;
#162 = AXIS2_PLACEMENT_3D ( 'NONE', #101, #31, #91 ) ;
#163 = CIRCLE ( 'NONE', #56, 0.9499999999999964029 ) ;
#164 = APPROVAL ( #33, 'UNSPECIFIED' ) ;
#165 = CONICAL_SURFACE ( 'NONE', #162, 0.7500000000000000000, 0.7853981633974512766 ) ;
#166 = FACE_OUTER_BOUND ( 'NONE', #22, .T. ) ;
#167 = CARTESIAN_POINT ( 'NONE',  ( 1.915017306309068718E-15, -6.716976511924455491E-17, 0.5484827557301481527 ) ) ;
#168 = CYLINDRICAL_SURFACE ( 'NONE', #36, 0.9499999999999959588 ) ;
#169 = PLANE ( 'NONE',  #72 ) ;
#170 = PERSON_AND_ORGANIZATION ( #5, #177 ) ;
#171 = EDGE_LOOP ( 'NONE', ( #124 ) ) ;
#172 = PERSON_AND_ORGANIZATION_ROLE ( 'design_owner' ) ;
#173 = EDGE_LOOP ( 'NONE', ( #77 ) ) ;
#174 = COORDINATED_UNIVERSAL_TIME_OFFSET ( 1, 0, .AHEAD. ) ;
#175 = CLOSED_SHELL ( 'NONE', ( #12, #63, #54, #99 ) ) ;
#176 = PERSON_AND_ORGANIZATION_ROLE ( 'creator' ) ;
#177 = ORGANIZATION ( 'UNSPECIFIED', 'UNSPECIFIED', '' ) ;
#178 = CC_DESIGN_PERSON_AND_ORGANIZATION_ASSIGNMENT ( #160, #143, ( #199 ) ) ;
#179 = FACE_OUTER_BOUND ( 'NONE', #26, .T. ) ;
#180 = FACE_OUTER_BOUND ( 'NONE', #24, .T. ) ;
#181 = AXIS2_PLACEMENT_3D ( 'NONE', #153, #88, #11 ) ;
#182 = VERTEX_POINT ( 'NONE', #40 ) ;
#183 = CARTESIAN_POINT ( 'NONE',  ( 3.142333204958820020E-14, -1.102182119232617714E-15, 9.000000000000000000 ) ) ;
#184 = DATE_AND_TIME ( #141, #149 ) ;
#185 = DIRECTION ( 'NONE',  ( -3.491481338843133355E-15, 1.224646799147353207E-16, -1.000000000000000000 ) ) ;
#186 = CALENDAR_DATE ( 2021, 6, 10 ) ;
#187 = CONICAL_SURFACE ( 'NONE', #51, 0.9499999999999954037, 1.047197551196592746 ) ;
#188 = ORIENTED_EDGE ( 'NONE', *, *, #68, .T. ) ;
#189 = EDGE_LOOP ( 'NONE', ( #126 ) ) ;
#190 = CALENDAR_DATE ( 2021, 6, 10 ) ;
#191 = ORIENTED_EDGE ( 'NONE', *, *, #68, .F. ) ;
#192 = SHAPE_DEFINITION_REPRESENTATION ( #133, #84 ) ;
#193 = AXIS2_PLACEMENT_3D ( 'NONE', #157, #100, #135 ) ;
#194 = APPROVAL ( #34, 'UNSPECIFIED' ) ;
#195 = APPROVAL ( #103, 'UNSPECIFIED' ) ;
#196 = DIRECTION ( 'NONE',  ( 3.491481338843133355E-15, -1.224646799147353207E-16, 1.000000000000000000 ) ) ;
#197 = FACE_OUTER_BOUND ( 'NONE', #107, .T. ) ;
#198 = CARTESIAN_POINT ( 'NONE',  ( 1.915017306309068718E-15, -6.716976511924455491E-17, 0.5484827557301481527 ) ) ;
#199 = SECURITY_CLASSIFICATION ( '', '', #21 ) ;
#200 = PRODUCT_DEFINITION_FORMATION_WITH_SPECIFIED_SOURCE ( 'ANY', '', #130, .NOT_KNOWN. ) ;
#201 = CARTESIAN_POINT ( 'NONE',  ( 3.142333204958820020E-14, -1.102182119232617714E-15, 9.000000000000000000 ) ) ;
#202 = DIRECTION ( 'NONE',  ( 4.275831445896959482E-31, 1.000000000000000000, 1.224646799147353207E-16 ) ) ;
#203 = DATE_TIME_ROLE ( 'creation_date' ) ;
ENDSEC;
END-ISO-10303-21;
