ISO-10303-21;
HEADER;
FILE_DESCRIPTION (( 'STEP AP203' ),
    '1' );
FILE_NAME ('22351.step',
    '2021-09-03T07:21:25',
    ( '' ),
    ( '' ),
    'SwSTEP 2.0',
    'SolidWorks 2019',
    '' );
FILE_SCHEMA (( 'CONFIG_CONTROL_DESIGN' ));
ENDSEC;

DATA;
#1 = PERSON_AND_ORGANIZATION ( #165, #92 ) ;
#2 = EDGE_CURVE ( 'NONE', #127, #93, #13, .T. ) ;
#3 = CARTESIAN_POINT ( 'NONE',  ( 0.0000000000000000000, 0.0000000000000000000, 0.0000000000000000000 ) ) ;
#4 = CARTESIAN_POINT ( 'NONE',  ( 2.730338406975330915E-13, -9.576737969332302470E-15, 78.20000000000000284 ) ) ;
#5 = VECTOR ( 'NONE', #157, 1000.000000000000000 ) ;
#6 = ADVANCED_FACE ( 'NONE', ( #226 ), #147, .T. ) ;
#7 = VERTEX_POINT ( 'NONE', #179 ) ;
#8 = DIRECTION ( 'NONE',  ( 4.275831445896958607E-31, 1.000000000000000000, 1.224646799147353207E-16 ) ) ;
#9 = COORDINATED_UNIVERSAL_TIME_OFFSET ( 1, 0, .AHEAD. ) ;
#10 = SHAPE_DEFINITION_REPRESENTATION ( #256, #41 ) ;
#11 = CYLINDRICAL_SURFACE ( 'NONE', #211, 3.849999999999993872 ) ;
#12 = DIRECTION ( 'NONE',  ( 0.0000000000000000000, 1.000000000000000000, 0.0000000000000000000 ) ) ;
#13 = CIRCLE ( 'NONE', #203, 3.849999999999991207 ) ;
#14 = ORIENTED_EDGE ( 'NONE', *, *, #129, .F. ) ;
#15 = APPLICATION_CONTEXT ( 'configuration controlled 3d designs of mechanical parts and assemblies' ) ;
#16 = VECTOR ( 'NONE', #308, 1000.000000000000114 ) ;
#17 = ADVANCED_FACE ( 'NONE', ( #251 ), #97, .T. ) ;
#18 = CONICAL_SURFACE ( 'NONE', #114, 3.849999999999988098, 1.029744258676649649 ) ;
#19 = VERTEX_POINT ( 'NONE', #28 ) ;
#20 = CC_DESIGN_APPROVAL ( #249, ( #310 ) ) ;
#21 = CC_DESIGN_DATE_AND_TIME_ASSIGNMENT ( #116, #33, ( #300 ) ) ;
#22 = FACE_OUTER_BOUND ( 'NONE', #86, .T. ) ;
#23 = CARTESIAN_POINT ( 'NONE',  ( 2.762005430423474760E-13, -3.050000000000006484, 79.00000000000000000 ) ) ;
#24 = CARTESIAN_POINT ( 'NONE',  ( 2.758270257686075477E-13, -9.674709713264090904E-15, 79.00000000000000000 ) ) ;
#25 = ADVANCED_FACE ( 'NONE', ( #184 ), #11, .T. ) ;
#26 = CARTESIAN_POINT ( 'NONE',  ( 8.076890508534834530E-15, -2.832991830229347973E-16, 2.313313383256125011 ) ) ;
#27 = PERSON_AND_ORGANIZATION ( #165, #92 ) ;
#28 = CARTESIAN_POINT ( 'NONE',  ( 9.426999614876460059E-14, 3.849999999999987654, 27.00000000000000000 ) ) ;
#29 = LINE ( 'NONE', #103, #5 ) ;
#30 = ADVANCED_FACE ( 'NONE', ( #32 ), #87, .F. ) ;
#31 = DIRECTION ( 'NONE',  ( 4.275831445896958607E-31, 1.000000000000000000, 1.224646799147353207E-16 ) ) ;
#32 = FACE_OUTER_BOUND ( 'NONE', #330, .T. ) ;
#33 = DATE_TIME_ROLE ( 'classification_date' ) ;
#34 = AXIS2_PLACEMENT_3D ( 'NONE', #120, #237, #50 ) ;
#35 = PERSON_AND_ORGANIZATION ( #165, #92 ) ;
#36 = ORIENTED_EDGE ( 'NONE', *, *, #220, .T. ) ;
#37 = DATE_AND_TIME ( #206, #260 ) ;
#38 = LINE ( 'NONE', #320, #66 ) ;
#39 = CIRCLE ( 'NONE', #252, 3.849999999999988098 ) ;
#40 = ORIENTED_EDGE ( 'NONE', *, *, #290, .F. ) ;
#41 = ADVANCED_BREP_SHAPE_REPRESENTATION ( '22351', ( #169, #60, #99 ), #289 ) ;
#42 = EDGE_LOOP ( 'NONE', ( #70, #67, #297, #321 ) ) ;
#43 = CALENDAR_DATE ( 2021, 3, 9 ) ;
#44 = ORIENTED_EDGE ( 'NONE', *, *, #138, .T. ) ;
#45 = ORIENTED_EDGE ( 'NONE', *, *, #138, .F. ) ;
#46 = AXIS2_PLACEMENT_3D ( 'NONE', #210, #137, #180 ) ;
#47 = CARTESIAN_POINT ( 'NONE',  ( 8.076890508534834530E-15, -2.832991830229347973E-16, 2.313313383256125011 ) ) ;
#48 = MECHANICAL_CONTEXT ( 'NONE', #216, 'mechanical' ) ;
#49 = CARTESIAN_POINT ( 'NONE',  ( 9.426999614876460059E-14, -3.306546357697853733E-15, 27.00000000000000000 ) ) ;
#50 = DIRECTION ( 'NONE',  ( 0.0000000000000000000, 1.000000000000000000, 0.0000000000000000000 ) ) ;
#51 = LINE ( 'NONE', #80, #266 ) ;
#52 = CIRCLE ( 'NONE', #107, 3.049999999999997158 ) ;
#53 = DATE_TIME_ROLE ( 'creation_date' ) ;
#54 = CARTESIAN_POINT ( 'NONE',  ( 8.076890508534834530E-15, -2.832991830229347973E-16, 2.313313383256125011 ) ) ;
#55 = DIRECTION ( 'NONE',  ( -3.491481338843133355E-15, 1.224646799147353207E-16, -1.000000000000000000 ) ) ;
#56 = CC_DESIGN_PERSON_AND_ORGANIZATION_ASSIGNMENT ( #273, #156, ( #134 ) ) ;
#57 = FACE_OUTER_BOUND ( 'NONE', #295, .T. ) ;
#58 = CARTESIAN_POINT ( 'NONE',  ( 0.0000000000000000000, 0.0000000000000000000, 0.0000000000000000000 ) ) ;
#59 = CARTESIAN_POINT ( 'NONE',  ( 9.426999614876460059E-14, 2.887037581624064126E-32, 27.00000000000000000 ) ) ;
#60 = MANIFOLD_SOLID_BREP ( 'Corps-Déplacer/Copier1[2]', #218 ) ;
#61 = DIRECTION ( 'NONE',  ( 0.0000000000000000000, 1.000000000000000000, 0.0000000000000000000 ) ) ;
#62 = ORIENTED_EDGE ( 'NONE', *, *, #177, .F. ) ;
#63 =( LENGTH_UNIT ( ) NAMED_UNIT ( * ) SI_UNIT ( .MILLI., .METRE. ) );
#64 = ORIENTED_EDGE ( 'NONE', *, *, #188, .T. ) ;
#65 = DATE_AND_TIME ( #43, #172 ) ;
#66 = VECTOR ( 'NONE', #264, 1000.000000000000000 ) ;
#67 = ORIENTED_EDGE ( 'NONE', *, *, #328, .T. ) ;
#68 = CARTESIAN_POINT ( 'NONE',  ( 0.0000000000000000000, 0.0000000000000000000, 0.0000000000000000000 ) ) ;
#69 = DIRECTION ( 'NONE',  ( -3.491481338843133355E-15, 1.224646799147353207E-16, -1.000000000000000000 ) ) ;
#70 = ORIENTED_EDGE ( 'NONE', *, *, #302, .F. ) ;
#71 = CARTESIAN_POINT ( 'NONE',  ( 2.730338406975330915E-13, 3.849999999999987654, 78.20000000000000284 ) ) ;
#72 = VERTEX_POINT ( 'NONE', #125 ) ;
#73 = ADVANCED_FACE ( 'NONE', ( #22 ), #18, .T. ) ;
#74 = DIRECTION ( 'NONE',  ( 0.0000000000000000000, 1.000000000000000000, 0.0000000000000000000 ) ) ;
#75 = DIRECTION ( 'NONE',  ( -3.491481338843133355E-15, 1.224646799147353207E-16, -1.000000000000000000 ) ) ;
#76 = DIRECTION ( 'NONE',  ( 3.491481338843133355E-15, -1.224646799147353207E-16, 1.000000000000000000 ) ) ;
#77 = DIRECTION ( 'NONE',  ( -3.491481338843133355E-15, 1.224646799147353207E-16, -1.000000000000000000 ) ) ;
#78 = CARTESIAN_POINT ( 'NONE',  ( 2.748529363787760814E-13, -3.050000000000006484, 79.00000000000000000 ) ) ;
#79 = DIRECTION ( 'NONE',  ( -3.491481338843133355E-15, 1.224646799147353207E-16, -1.000000000000000000 ) ) ;
#80 = CARTESIAN_POINT ( 'NONE',  ( 1.646195106670326497E-30, 3.849999999999993872, 4.714890176717302612E-16 ) ) ;
#81 = ORIENTED_EDGE ( 'NONE', *, *, #241, .T. ) ;
#82 = CALENDAR_DATE ( 2021, 3, 9 ) ;
#83 = AXIS2_PLACEMENT_3D ( 'NONE', #170, #247, #311 ) ;
#84 = APPROVAL_DATE_TIME ( #303, #111 ) ;
#85 = EDGE_CURVE ( 'NONE', #197, #108, #199, .T. ) ;
#86 = EDGE_LOOP ( 'NONE', ( #106, #222, #248 ) ) ;
#87 = PLANE ( 'NONE',  #293 ) ;
#88 = LINE ( 'NONE', #240, #274 ) ;
#89 = CONICAL_SURFACE ( 'NONE', #227, 3.049999999999997158, 0.7853981633974512766 ) ;
#90 = ORIENTED_EDGE ( 'NONE', *, *, #102, .F. ) ;
#91 = DATE_AND_TIME ( #139, #336 ) ;
#92 = ORGANIZATION ( 'UNSPECIFIED', 'UNSPECIFIED', '' ) ;
#93 = VERTEX_POINT ( 'NONE', #100 ) ;
#94 = ADVANCED_FACE ( 'NONE', ( #208 ), #89, .T. ) ;
#95 =( NAMED_UNIT ( * ) PLANE_ANGLE_UNIT ( ) SI_UNIT ( $, .RADIAN. ) );
#96 = ORIENTED_EDGE ( 'NONE', *, *, #2, .F. ) ;
#97 = CONICAL_SURFACE ( 'NONE', #278, 3.049999999999997158, 0.7853981633974512766 ) ;
#98 = EDGE_LOOP ( 'NONE', ( #304, #268, #14, #62 ) ) ;
#99 = AXIS2_PLACEMENT_3D ( 'NONE', #68, #132, #325 ) ;
#100 = CARTESIAN_POINT ( 'NONE',  ( 1.841234074408205234E-13, -3.849999999999994316, 27.00000000000000000 ) ) ;
#101 = LINE ( 'NONE', #205, #163 ) ;
#102 = EDGE_CURVE ( 'NONE', #288, #93, #101, .T. ) ;
#103 = CARTESIAN_POINT ( 'NONE',  ( 8.076890508534832953E-15, -3.849999999999988542, 2.313313383256124567 ) ) ;
#104 = CIRCLE ( 'NONE', #34, 3.849999999999991207 ) ;
#105 = DIRECTION ( 'NONE',  ( -3.491481338843133355E-15, 1.224646799147353207E-16, -1.000000000000000000 ) ) ;
#106 = ORIENTED_EDGE ( 'NONE', *, *, #282, .F. ) ;
#107 = AXIS2_PLACEMENT_3D ( 'NONE', #24, #234, #61 ) ;
#108 = VERTEX_POINT ( 'NONE', #306 ) ;
#109 = PERSON_AND_ORGANIZATION ( #165, #92 ) ;
#110 = APPROVAL_DATE_TIME ( #65, #249 ) ;
#111 = APPROVAL ( #161, 'UNSPECIFIED' ) ;
#112 = AXIS2_PLACEMENT_3D ( 'NONE', #316, #191, #12 ) ;
#113 = APPROVAL_STATUS ( 'not_yet_approved' ) ;
#114 = AXIS2_PLACEMENT_3D ( 'NONE', #47, #231, #131 ) ;
#115 = PRODUCT_RELATED_PRODUCT_CATEGORY ( 'detail', '', ( #134 ) ) ;
#116 = DATE_AND_TIME ( #82, #309 ) ;
#117 = DIRECTION ( 'NONE',  ( -3.491481338843133355E-15, 1.224646799147353207E-16, -1.000000000000000000 ) ) ;
#118 = VERTEX_POINT ( 'NONE', #71 ) ;
#119 = DIRECTION ( 'NONE',  ( -3.491481338843133355E-15, 1.224646799147353207E-16, -1.000000000000000000 ) ) ;
#120 = CARTESIAN_POINT ( 'NONE',  ( 9.426999614876460059E-14, -3.306546357697853733E-15, 27.00000000000000000 ) ) ;
#121 = EDGE_LOOP ( 'NONE', ( #45, #280 ) ) ;
#122 = VERTEX_POINT ( 'NONE', #178 ) ;
#123 = CC_DESIGN_DATE_AND_TIME_ASSIGNMENT ( #37, #53, ( #305 ) ) ;
#124 = EDGE_LOOP ( 'NONE', ( #90, #217, #64, #196 ) ) ;
#125 = CARTESIAN_POINT ( 'NONE',  ( 0.0000000000000000000, 0.0000000000000000000, 0.0000000000000000000 ) ) ;
#126 = VECTOR ( 'NONE', #155, 1000.000000000000114 ) ;
#127 = VERTEX_POINT ( 'NONE', #224 ) ;
#128 = DIRECTION ( 'NONE',  ( 4.001932351973489870E-31, 1.000000000000000000, 1.126443815569358851E-16 ) ) ;
#129 = EDGE_CURVE ( 'NONE', #118, #288, #332, .T. ) ;
#130 = CARTESIAN_POINT ( 'NONE',  ( 2.758270257686075477E-13, 3.049999999999987832, 79.00000000000000000 ) ) ;
#131 = DIRECTION ( 'NONE',  ( -4.001932351973489870E-31, -1.000000000000000000, -1.126443815569358851E-16 ) ) ;
#132 = DIRECTION ( 'NONE',  ( 0.0000000000000000000, 0.0000000000000000000, 1.000000000000000000 ) ) ;
#133 = CC_DESIGN_PERSON_AND_ORGANIZATION_ASSIGNMENT ( #221, #145, ( #300 ) ) ;
#134 = PRODUCT ( '22351', '22351', '', ( #48 ) ) ;
#135 = CONICAL_SURFACE ( 'NONE', #83, 3.849999999999988098, 1.029744258676649649 ) ;
#136 = PLANE ( 'NONE',  #250 ) ;
#137 = DIRECTION ( 'NONE',  ( -3.491481338843133355E-15, 1.224646799147353207E-16, -1.000000000000000000 ) ) ;
#138 = EDGE_CURVE ( 'NONE', #19, #7, #207, .T. ) ;
#139 = CALENDAR_DATE ( 2021, 3, 9 ) ;
#140 = DIRECTION ( 'NONE',  ( 0.0000000000000000000, 1.000000000000000000, 0.0000000000000000000 ) ) ;
#141 = PERSON_AND_ORGANIZATION_ROLE ( 'creator' ) ;
#142 = SECURITY_CLASSIFICATION_LEVEL ( 'unclassified' ) ;
#143 = CARTESIAN_POINT ( 'NONE',  ( 0.0000000000000000000, 0.0000000000000000000, 0.0000000000000000000 ) ) ;
#144 = CC_DESIGN_PERSON_AND_ORGANIZATION_ASSIGNMENT ( #1, #245, ( #310 ) ) ;
#145 = PERSON_AND_ORGANIZATION_ROLE ( 'classification_officer' ) ;
#146 = CARTESIAN_POINT ( 'NONE',  ( 9.426999614876460059E-14, -3.306546357697853733E-15, 27.00000000000000000 ) ) ;
#147 = PLANE ( 'NONE',  #299 ) ;
#148 = CIRCLE ( 'NONE', #182, 3.849999999999991207 ) ;
#149 = APPLICATION_PROTOCOL_DEFINITION ( 'international standard', 'config_control_design', 1994, #216 ) ;
#150 = ORIENTED_EDGE ( 'NONE', *, *, #307, .T. ) ;
#151 = ADVANCED_FACE ( 'NONE', ( #254 ), #136, .F. ) ;
#152 = DIRECTION ( 'NONE',  ( -3.491481338843133355E-15, 1.224646799147353207E-16, -1.000000000000000000 ) ) ;
#153 = APPROVAL_PERSON_ORGANIZATION ( #35, #229, #265 ) ;
#154 = ORIENTED_EDGE ( 'NONE', *, *, #313, .F. ) ;
#155 = DIRECTION ( 'NONE',  ( -2.382254525458708792E-15, -0.7071067811865495711, -0.7071067811865455743 ) ) ;
#156 = PERSON_AND_ORGANIZATION_ROLE ( 'design_owner' ) ;
#157 = DIRECTION ( 'NONE',  ( 1.798245827342160317E-15, -0.8571673007021098911, 0.5150380749100582634 ) ) ;
#158 = AXIS2_PLACEMENT_3D ( 'NONE', #334, #75, #279 ) ;
#159 = DIRECTION ( 'NONE',  ( 0.0000000000000000000, 1.000000000000000000, 0.0000000000000000000 ) ) ;
#160 = AXIS2_PLACEMENT_3D ( 'NONE', #54, #152, #128 ) ;
#161 = APPROVAL_STATUS ( 'not_yet_approved' ) ;
#162 = LINE ( 'NONE', #130, #16 ) ;
#163 = VECTOR ( 'NONE', #105, 1000.000000000000000 ) ;
#164 = ORIENTED_EDGE ( 'NONE', *, *, #262, .T. ) ;
#165 = PERSON ( 'UNSPECIFIED', 'UNSPECIFIED', 'UNSPECIFIED', ('UNSPECIFIED'), ('UNSPECIFIED'), ('UNSPECIFIED') ) ;
#166 = EDGE_CURVE ( 'NONE', #72, #108, #29, .T. ) ;
#167 = DIRECTION ( 'NONE',  ( 3.491481338843133355E-15, -1.224646799147353207E-16, 1.000000000000000000 ) ) ;
#168 = CYLINDRICAL_SURFACE ( 'NONE', #281, 3.849999999999989875 ) ;
#169 = MANIFOLD_SOLID_BREP ( 'Corps-Déplacer/Copier1[1]', #258 ) ;
#170 = CARTESIAN_POINT ( 'NONE',  ( 8.076890508534834530E-15, -2.832991830229347973E-16, 2.313313383256125011 ) ) ;
#171 = VERTEX_POINT ( 'NONE', #78 ) ;
#172 = LOCAL_TIME ( 9, 21, 25.00000000000000000, #9 ) ;
#173 = CALENDAR_DATE ( 2021, 3, 9 ) ;
#174 = ORIENTED_EDGE ( 'NONE', *, *, #282, .T. ) ;
#175 = EDGE_LOOP ( 'NONE', ( #318, #36, #164, #40 ) ) ;
#176 = LINE ( 'NONE', #23, #126 ) ;
#177 = EDGE_CURVE ( 'NONE', #122, #118, #162, .T. ) ;
#178 = CARTESIAN_POINT ( 'NONE',  ( 2.758270257686075477E-13, 3.049999999999987832, 79.00000000000000000 ) ) ;
#179 = CARTESIAN_POINT ( 'NONE',  ( 5.164493234632140118E-14, -3.849999999999994760, 27.00000000000000000 ) ) ;
#180 = DIRECTION ( 'NONE',  ( 0.0000000000000000000, 1.000000000000000000, 0.0000000000000000000 ) ) ;
#181 = DIRECTION ( 'NONE',  ( -4.275831445896958607E-31, -1.000000000000000000, -1.224646799147353207E-16 ) ) ;
#182 = AXIS2_PLACEMENT_3D ( 'NONE', #146, #119, #140 ) ;
#183 = ORIENTED_EDGE ( 'NONE', *, *, #85, .T. ) ;
#184 = FACE_OUTER_BOUND ( 'NONE', #209, .T. ) ;
#185 = FACE_OUTER_BOUND ( 'NONE', #124, .T. ) ;
#186 = ADVANCED_FACE ( 'NONE', ( #238 ), #233, .T. ) ;
#187 = CC_DESIGN_APPROVAL ( #111, ( #305 ) ) ;
#188 = EDGE_CURVE ( 'NONE', #118, #127, #51, .T. ) ;
#189 = COORDINATED_UNIVERSAL_TIME_OFFSET ( 1, 0, .AHEAD. ) ;
#190 = DIRECTION ( 'NONE',  ( 0.0000000000000000000, 1.000000000000000000, 0.0000000000000000000 ) ) ;
#191 = DIRECTION ( 'NONE',  ( -3.491481338843133355E-15, 1.224646799147353207E-16, -1.000000000000000000 ) ) ;
#192 = ORIENTED_EDGE ( 'NONE', *, *, #102, .T. ) ;
#193 = CC_DESIGN_APPROVAL ( #229, ( #300 ) ) ;
#194 = LINE ( 'NONE', #296, #246 ) ;
#195 = ADVANCED_FACE ( 'NONE', ( #185 ), #243, .T. ) ;
#196 = ORIENTED_EDGE ( 'NONE', *, *, #307, .F. ) ;
#197 = VERTEX_POINT ( 'NONE', #292 ) ;
#198 = CC_DESIGN_SECURITY_CLASSIFICATION ( #300, ( #310 ) ) ;
#199 = CIRCLE ( 'NONE', #160, 3.849999999999988098 ) ;
#200 = UNCERTAINTY_MEASURE_WITH_UNIT (LENGTH_MEASURE( 1.000000000000000082E-05 ), #63, 'distance_accuracy_value', 'NONE');
#201 = DIRECTION ( 'NONE',  ( 4.001932351973489870E-31, 1.000000000000000000, 1.126443815569358851E-16 ) ) ;
#202 = AXIS2_PLACEMENT_3D ( 'NONE', #4, #204, #239 ) ;
#203 = AXIS2_PLACEMENT_3D ( 'NONE', #285, #214, #190 ) ;
#204 = DIRECTION ( 'NONE',  ( -3.491481338843133355E-15, 1.224646799147353207E-16, -1.000000000000000000 ) ) ;
#205 = CARTESIAN_POINT ( 'NONE',  ( 4.714890176717286835E-16, -3.849999999999993872, -4.714890176717318390E-16 ) ) ;
#206 = CALENDAR_DATE ( 2021, 3, 9 ) ;
#207 = CIRCLE ( 'NONE', #232, 3.849999999999991207 ) ;
#208 = FACE_OUTER_BOUND ( 'NONE', #42, .T. ) ;
#209 = EDGE_LOOP ( 'NONE', ( #323, #192, #96, #225 ) ) ;
#210 = CARTESIAN_POINT ( 'NONE',  ( 2.758270257686075477E-13, -9.674709713264090904E-15, 79.00000000000000000 ) ) ;
#211 = AXIS2_PLACEMENT_3D ( 'NONE', #143, #69, #31 ) ;
#212 = APPROVAL_STATUS ( 'not_yet_approved' ) ;
#213 = APPROVAL_PERSON_ORGANIZATION ( #284, #249, #267 ) ;
#214 = DIRECTION ( 'NONE',  ( -3.491481338843133355E-15, 1.224646799147353207E-16, -1.000000000000000000 ) ) ;
#215 = CC_DESIGN_PERSON_AND_ORGANIZATION_ASSIGNMENT ( #109, #141, ( #310 ) ) ;
#216 = APPLICATION_CONTEXT ( 'configuration controlled 3d designs of mechanical parts and assemblies' ) ;
#217 = ORIENTED_EDGE ( 'NONE', *, *, #271, .T. ) ;
#218 = CLOSED_SHELL ( 'NONE', ( #322, #255, #73, #186, #6 ) ) ;
#219 = PERSON_AND_ORGANIZATION_ROLE ( 'creator' ) ;
#220 = EDGE_CURVE ( 'NONE', #7, #19, #148, .T. ) ;
#221 = PERSON_AND_ORGANIZATION ( #165, #92 ) ;
#222 = ORIENTED_EDGE ( 'NONE', *, *, #166, .T. ) ;
#223 = COORDINATED_UNIVERSAL_TIME_OFFSET ( 1, 0, .AHEAD. ) ;
#224 = CARTESIAN_POINT ( 'NONE',  ( 9.426999614876460059E-14, 3.849999999999987654, 27.00000000000000000 ) ) ;
#225 = ORIENTED_EDGE ( 'NONE', *, *, #188, .F. ) ;
#226 = FACE_OUTER_BOUND ( 'NONE', #121, .T. ) ;
#227 = AXIS2_PLACEMENT_3D ( 'NONE', #230, #329, #74 ) ;
#228 = DESIGN_CONTEXT ( 'detailed design', #15, 'design' ) ;
#229 = APPROVAL ( #113, 'UNSPECIFIED' ) ;
#230 = CARTESIAN_POINT ( 'NONE',  ( 2.758270257686075477E-13, -9.674709713264090904E-15, 79.00000000000000000 ) ) ;
#231 = DIRECTION ( 'NONE',  ( 3.491481338843133355E-15, -1.224646799147353207E-16, 1.000000000000000000 ) ) ;
#232 = AXIS2_PLACEMENT_3D ( 'NONE', #49, #77, #235 ) ;
#233 = CYLINDRICAL_SURFACE ( 'NONE', #158, 3.849999999999989875 ) ;
#234 = DIRECTION ( 'NONE',  ( -3.491481338843133355E-15, 1.224646799147353207E-16, -1.000000000000000000 ) ) ;
#235 = DIRECTION ( 'NONE',  ( 0.0000000000000000000, 1.000000000000000000, 0.0000000000000000000 ) ) ;
#236 = APPROVAL_ROLE ( '' ) ;
#237 = DIRECTION ( 'NONE',  ( -3.491481338843133355E-15, 1.224646799147353207E-16, -1.000000000000000000 ) ) ;
#238 = FACE_OUTER_BOUND ( 'NONE', #175, .T. ) ;
#239 = DIRECTION ( 'NONE',  ( 0.0000000000000000000, 1.000000000000000000, 0.0000000000000000000 ) ) ;
#240 = CARTESIAN_POINT ( 'NONE',  ( 1.646195106670324746E-30, 3.849999999999989875, 4.714890176717296696E-16 ) ) ;
#241 = EDGE_CURVE ( 'NONE', #7, #108, #38, .T. ) ;
#242 = CIRCLE ( 'NONE', #46, 3.049999999999997158 ) ;
#243 = CYLINDRICAL_SURFACE ( 'NONE', #270, 3.849999999999993872 ) ;
#244 = FACE_OUTER_BOUND ( 'NONE', #272, .T. ) ;
#245 = PERSON_AND_ORGANIZATION_ROLE ( 'design_supplier' ) ;
#246 = VECTOR ( 'NONE', #277, 999.9999999999998863 ) ;
#247 = DIRECTION ( 'NONE',  ( 3.491481338843133355E-15, -1.224646799147353207E-16, 1.000000000000000000 ) ) ;
#248 = ORIENTED_EDGE ( 'NONE', *, *, #290, .T. ) ;
#249 = APPROVAL ( #212, 'UNSPECIFIED' ) ;
#250 = AXIS2_PLACEMENT_3D ( 'NONE', #253, #259, #287 ) ;
#251 = FACE_OUTER_BOUND ( 'NONE', #98, .T. ) ;
#252 = AXIS2_PLACEMENT_3D ( 'NONE', #26, #327, #201 ) ;
#253 = CARTESIAN_POINT ( 'NONE',  ( 2.758270257686075477E-13, 2.287133668559316430E-32, 79.00000000000000000 ) ) ;
#254 = FACE_OUTER_BOUND ( 'NONE', #298, .T. ) ;
#255 = ADVANCED_FACE ( 'NONE', ( #244 ), #135, .T. ) ;
#256 = PRODUCT_DEFINITION_SHAPE ( 'NONE', 'NONE',  #305 ) ;
#257 = DIRECTION ( 'NONE',  ( 4.275831445896958607E-31, 1.000000000000000000, 1.224646799147352961E-16 ) ) ;
#258 = CLOSED_SHELL ( 'NONE', ( #17, #25, #30, #195, #94, #151 ) ) ;
#259 = DIRECTION ( 'NONE',  ( -3.491481338843133355E-15, 1.224646799147353207E-16, -1.000000000000000000 ) ) ;
#260 = LOCAL_TIME ( 9, 21, 25.00000000000000000, #189 ) ;
#261 = CARTESIAN_POINT ( 'NONE',  ( 1.841234074408203971E-13, -3.850000000000006750, 78.20000000000000284 ) ) ;
#262 = EDGE_CURVE ( 'NONE', #19, #197, #88, .T. ) ;
#263 = ORIENTED_EDGE ( 'NONE', *, *, #85, .F. ) ;
#264 = DIRECTION ( 'NONE',  ( -3.491481338843133355E-15, 1.224646799147353207E-16, -1.000000000000000000 ) ) ;
#265 = APPROVAL_ROLE ( '' ) ;
#266 = VECTOR ( 'NONE', #335, 1000.000000000000000 ) ;
#267 = APPROVAL_ROLE ( '' ) ;
#268 = ORIENTED_EDGE ( 'NONE', *, *, #302, .T. ) ;
#269 = PERSON_AND_ORGANIZATION ( #165, #92 ) ;
#270 = AXIS2_PLACEMENT_3D ( 'NONE', #58, #117, #8 ) ;
#271 = EDGE_CURVE ( 'NONE', #288, #118, #317, .T. ) ;
#272 = EDGE_LOOP ( 'NONE', ( #319, #174, #183 ) ) ;
#273 = PERSON_AND_ORGANIZATION ( #165, #92 ) ;
#274 = VECTOR ( 'NONE', #314, 1000.000000000000000 ) ;
#275 = CC_DESIGN_PERSON_AND_ORGANIZATION_ASSIGNMENT ( #269, #219, ( #305 ) ) ;
#276 = APPLICATION_PROTOCOL_DEFINITION ( 'international standard', 'config_control_design', 1994, #15 ) ;
#277 = DIRECTION ( 'NONE',  ( 1.903218546456022717E-15, 0.8571673007021097801, 0.5150380749100585964 ) ) ;
#278 = AXIS2_PLACEMENT_3D ( 'NONE', #283, #55, #159 ) ;
#279 = DIRECTION ( 'NONE',  ( 4.275831445896958607E-31, 1.000000000000000000, 1.224646799147352961E-16 ) ) ;
#280 = ORIENTED_EDGE ( 'NONE', *, *, #220, .F. ) ;
#281 = AXIS2_PLACEMENT_3D ( 'NONE', #3, #79, #257 ) ;
#282 = EDGE_CURVE ( 'NONE', #72, #197, #194, .T. ) ;
#283 = CARTESIAN_POINT ( 'NONE',  ( 2.758270257686075477E-13, -9.674709713264090904E-15, 79.00000000000000000 ) ) ;
#284 = PERSON_AND_ORGANIZATION ( #165, #92 ) ;
#285 = CARTESIAN_POINT ( 'NONE',  ( 9.426999614876460059E-14, -3.306546357697853733E-15, 27.00000000000000000 ) ) ;
#286 = COORDINATED_UNIVERSAL_TIME_OFFSET ( 1, 0, .AHEAD. ) ;
#287 = DIRECTION ( 'NONE',  ( 4.275831445896958607E-31, 1.000000000000000000, 1.224646799147353207E-16 ) ) ;
#288 = VERTEX_POINT ( 'NONE', #261 ) ;
#289 =( GEOMETRIC_REPRESENTATION_CONTEXT ( 3 ) GLOBAL_UNCERTAINTY_ASSIGNED_CONTEXT ( ( #200 ) ) GLOBAL_UNIT_ASSIGNED_CONTEXT ( ( #63, #95, #312 ) ) REPRESENTATION_CONTEXT ( 'NONE', 'WORKASPACE' ) );
#290 = EDGE_CURVE ( 'NONE', #108, #197, #39, .T. ) ;
#291 = APPROVAL_DATE_TIME ( #91, #229 ) ;
#292 = CARTESIAN_POINT ( 'NONE',  ( 8.548379526206563904E-15, 3.849999999999987654, 2.313313383256125455 ) ) ;
#293 = AXIS2_PLACEMENT_3D ( 'NONE', #59, #167, #181 ) ;
#294 = ORIENTED_EDGE ( 'NONE', *, *, #262, .F. ) ;
#295 = EDGE_LOOP ( 'NONE', ( #44, #81, #263, #294 ) ) ;
#296 = CARTESIAN_POINT ( 'NONE',  ( 8.548379526206563904E-15, 3.849999999999987654, 2.313313383256125455 ) ) ;
#297 = ORIENTED_EDGE ( 'NONE', *, *, #177, .T. ) ;
#298 = EDGE_LOOP ( 'NONE', ( #154, #301 ) ) ;
#299 = AXIS2_PLACEMENT_3D ( 'NONE', #337, #76, #331 ) ;
#300 = SECURITY_CLASSIFICATION ( '', '', #142 ) ;
#301 = ORIENTED_EDGE ( 'NONE', *, *, #328, .F. ) ;
#302 = EDGE_CURVE ( 'NONE', #171, #288, #176, .T. ) ;
#303 = DATE_AND_TIME ( #173, #326 ) ;
#304 = ORIENTED_EDGE ( 'NONE', *, *, #313, .T. ) ;
#305 = PRODUCT_DEFINITION ( 'UNKNOWN', '', #310, #228 ) ;
#306 = CARTESIAN_POINT ( 'NONE',  ( 8.076890508534832953E-15, -3.849999999999988542, 2.313313383256124567 ) ) ;
#307 = EDGE_CURVE ( 'NONE', #93, #127, #104, .T. ) ;
#308 = DIRECTION ( 'NONE',  ( -2.468850131082257455E-15, 0.7071067811865497932, -0.7071067811865453523 ) ) ;
#309 = LOCAL_TIME ( 9, 21, 25.00000000000000000, #315 ) ;
#310 = PRODUCT_DEFINITION_FORMATION_WITH_SPECIFIED_SOURCE ( 'ANY', '', #134, .NOT_KNOWN. ) ;
#311 = DIRECTION ( 'NONE',  ( -4.001932351973489870E-31, -1.000000000000000000, -1.126443815569358851E-16 ) ) ;
#312 =( NAMED_UNIT ( * ) SI_UNIT ( $, .STERADIAN. ) SOLID_ANGLE_UNIT ( ) );
#313 = EDGE_CURVE ( 'NONE', #122, #171, #52, .T. ) ;
#314 = DIRECTION ( 'NONE',  ( -3.491481338843133355E-15, 1.224646799147353207E-16, -1.000000000000000000 ) ) ;
#315 = COORDINATED_UNIVERSAL_TIME_OFFSET ( 1, 0, .AHEAD. ) ;
#316 = CARTESIAN_POINT ( 'NONE',  ( 2.730338406975330915E-13, -9.576737969332302470E-15, 78.20000000000000284 ) ) ;
#317 = CIRCLE ( 'NONE', #112, 3.849999999999996980 ) ;
#318 = ORIENTED_EDGE ( 'NONE', *, *, #241, .F. ) ;
#319 = ORIENTED_EDGE ( 'NONE', *, *, #166, .F. ) ;
#320 = CARTESIAN_POINT ( 'NONE',  ( 4.714890176717280919E-16, -3.849999999999989875, -4.714890176717313459E-16 ) ) ;
#321 = ORIENTED_EDGE ( 'NONE', *, *, #271, .F. ) ;
#322 = ADVANCED_FACE ( 'NONE', ( #57 ), #168, .T. ) ;
#323 = ORIENTED_EDGE ( 'NONE', *, *, #129, .T. ) ;
#324 = ORIENTED_EDGE ( 'NONE', *, *, #2, .T. ) ;
#325 = DIRECTION ( 'NONE',  ( 1.000000000000000000, 0.0000000000000000000, 0.0000000000000000000 ) ) ;
#326 = LOCAL_TIME ( 9, 21, 25.00000000000000000, #286 ) ;
#327 = DIRECTION ( 'NONE',  ( -3.491481338843133355E-15, 1.224646799147353207E-16, -1.000000000000000000 ) ) ;
#328 = EDGE_CURVE ( 'NONE', #171, #122, #242, .T. ) ;
#329 = DIRECTION ( 'NONE',  ( -3.491481338843133355E-15, 1.224646799147353207E-16, -1.000000000000000000 ) ) ;
#330 = EDGE_LOOP ( 'NONE', ( #324, #150 ) ) ;
#331 = DIRECTION ( 'NONE',  ( -4.275831445896958607E-31, -1.000000000000000000, -1.224646799147353207E-16 ) ) ;
#332 = CIRCLE ( 'NONE', #202, 3.849999999999996980 ) ;
#333 = APPROVAL_PERSON_ORGANIZATION ( #27, #111, #236 ) ;
#334 = CARTESIAN_POINT ( 'NONE',  ( 0.0000000000000000000, 0.0000000000000000000, 0.0000000000000000000 ) ) ;
#335 = DIRECTION ( 'NONE',  ( -3.491481338843133355E-15, 1.224646799147353207E-16, -1.000000000000000000 ) ) ;
#336 = LOCAL_TIME ( 9, 21, 25.00000000000000000, #223 ) ;
#337 = CARTESIAN_POINT ( 'NONE',  ( 9.426999614876460059E-14, 2.887037581624064126E-32, 27.00000000000000000 ) ) ;
ENDSEC;
END-ISO-10303-21;
