ISO-10303-21;
HEADER;
FILE_DESCRIPTION (( 'STEP AP203' ),
    '1' );
FILE_NAME ('223.step',
    '2021-10-06T08:24:44',
    ( '' ),
    ( '' ),
    'SwSTEP 2.0',
    'SolidWorks 2019',
    '' );
FILE_SCHEMA (( 'CONFIG_CONTROL_DESIGN' ));
ENDSEC;

DATA;
#1 = ADVANCED_FACE ( 'NONE', ( #170 ), #113, .F. ) ;
#2 = DIRECTION ( 'NONE',  ( -4.275831445896958607E-31, -1.000000000000000000, -1.224646799147353207E-16 ) ) ;
#3 = VERTEX_POINT ( 'NONE', #133 ) ;
#4 = CONICAL_SURFACE ( 'NONE', #178, 0.8999999999999954703, 1.047197551196592746 ) ;
#5 = DIRECTION ( 'NONE',  ( -3.491481338843133355E-15, 1.224646799147353207E-16, -1.000000000000000000 ) ) ;
#6 = DIRECTION ( 'NONE',  ( -4.275831445896958607E-31, -1.000000000000000000, -1.224646799147353207E-16 ) ) ;
#7 = MANIFOLD_SOLID_BREP ( 'Corps-Déplacer/Copier1[2]', #21 ) ;
#8 = AXIS2_PLACEMENT_3D ( 'NONE', #111, #32, #29 ) ;
#9 = DESIGN_CONTEXT ( 'detailed design', #74, 'design' ) ;
#10 = PRODUCT_DEFINITION_SHAPE ( 'NONE', 'NONE',  #154 ) ;
#11 = ORIENTED_EDGE ( 'NONE', *, *, #56, .T. ) ;
#12 = DIRECTION ( 'NONE',  ( 1.000000000000000000, 0.0000000000000000000, 0.0000000000000000000 ) ) ;
#13 = AXIS2_PLACEMENT_3D ( 'NONE', #84, #66, #6 ) ;
#14 = PERSON_AND_ORGANIZATION ( #38, #26 ) ;
#15 = EDGE_LOOP ( 'NONE', ( #96 ) ) ;
#16 = CALENDAR_DATE ( 2021, 6, 10 ) ;
#17 = APPROVAL_DATE_TIME ( #33, #180 ) ;
#18 = CIRCLE ( 'NONE', #23, 0.8999999999999963585 ) ;
#19 = FACE_OUTER_BOUND ( 'NONE', #45, .T. ) ;
#20 = DIRECTION ( 'NONE',  ( -3.491481338843133355E-15, 1.224646799147353207E-16, -1.000000000000000000 ) ) ;
#21 = CLOSED_SHELL ( 'NONE', ( #27, #93, #191 ) ) ;
#22 =( NAMED_UNIT ( * ) PLANE_ANGLE_UNIT ( ) SI_UNIT ( $, .RADIAN. ) );
#23 = AXIS2_PLACEMENT_3D ( 'NONE', #196, #192, #36 ) ;
#24 = FACE_OUTER_BOUND ( 'NONE', #129, .T. ) ;
#25 = CARTESIAN_POINT ( 'NONE',  ( 3.142333204958820020E-14, 0.8999999999999953593, 9.000000000000000000 ) ) ;
#26 = ORGANIZATION ( 'UNSPECIFIED', 'UNSPECIFIED', '' ) ;
#27 = ADVANCED_FACE ( 'NONE', ( #31 ), #4, .T. ) ;
#28 = SHAPE_DEFINITION_REPRESENTATION ( #10, #186 ) ;
#29 = DIRECTION ( 'NONE',  ( 4.275831445896958607E-31, 1.000000000000000000, 1.224646799147353207E-16 ) ) ;
#30 = APPROVAL_STATUS ( 'not_yet_approved' ) ;
#31 = FACE_OUTER_BOUND ( 'NONE', #83, .T. ) ;
#32 = DIRECTION ( 'NONE',  ( -3.491481338843133355E-15, 1.224646799147353207E-16, -1.000000000000000000 ) ) ;
#33 = DATE_AND_TIME ( #79, #169 ) ;
#34 = EDGE_LOOP ( 'NONE', ( #117 ) ) ;
#35 = AXIS2_PLACEMENT_3D ( 'NONE', #179, #149, #37 ) ;
#36 = DIRECTION ( 'NONE',  ( 0.0000000000000000000, 1.000000000000000000, 0.0000000000000000000 ) ) ;
#37 = DIRECTION ( 'NONE',  ( 0.0000000000000000000, 1.000000000000000000, 0.0000000000000000000 ) ) ;
#38 = PERSON ( 'UNSPECIFIED', 'UNSPECIFIED', 'UNSPECIFIED', ('UNSPECIFIED'), ('UNSPECIFIED'), ('UNSPECIFIED') ) ;
#39 = EDGE_CURVE ( 'NONE', #3, #3, #174, .T. ) ;
#40 = SECURITY_CLASSIFICATION ( '', '', #130 ) ;
#41 = ADVANCED_FACE ( 'NONE', ( #19, #136 ), #51, .T. ) ;
#42 = ORIENTED_EDGE ( 'NONE', *, *, #88, .F. ) ;
#43 = APPROVAL_ROLE ( '' ) ;
#44 = ORIENTED_EDGE ( 'NONE', *, *, #173, .T. ) ;
#45 = EDGE_LOOP ( 'NONE', ( #183 ) ) ;
#46 = MECHANICAL_CONTEXT ( 'NONE', #89, 'mechanical' ) ;
#47 = CARTESIAN_POINT ( 'NONE',  ( 3.142333204958820020E-14, 6.748919021978315445E-33, 9.000000000000000000 ) ) ;
#48 = APPROVAL_PERSON_ORGANIZATION ( #14, #180, #184 ) ;
#49 = CARTESIAN_POINT ( 'NONE',  ( 1.814226921766486030E-15, 0.8999999999999953593, 0.5196152422706665774 ) ) ;
#50 = CARTESIAN_POINT ( 'NONE',  ( 0.0000000000000000000, 0.0000000000000000000, 0.0000000000000000000 ) ) ;
#51 = CYLINDRICAL_SURFACE ( 'NONE', #82, 0.8999999999999982458 ) ;
#52 = FACE_OUTER_BOUND ( 'NONE', #185, .T. ) ;
#53 = APPLICATION_PROTOCOL_DEFINITION ( 'international standard', 'config_control_design', 1994, #89 ) ;
#54 = CC_DESIGN_PERSON_AND_ORGANIZATION_ASSIGNMENT ( #172, #126, ( #141 ) ) ;
#55 = CIRCLE ( 'NONE', #200, 0.8999999999999954703 ) ;
#56 = EDGE_CURVE ( 'NONE', #164, #164, #18, .T. ) ;
#57 = EDGE_LOOP ( 'NONE', ( #11 ) ) ;
#58 = APPROVAL_ROLE ( '' ) ;
#59 = CONICAL_SURFACE ( 'NONE', #35, 0.6999999999999999556, 0.7853981633974512766 ) ;
#60 = EDGE_LOOP ( 'NONE', ( #62 ) ) ;
#61 = CC_DESIGN_PERSON_AND_ORGANIZATION_ASSIGNMENT ( #75, #116, ( #67 ) ) ;
#62 = ORIENTED_EDGE ( 'NONE', *, *, #39, .F. ) ;
#63 = PERSON_AND_ORGANIZATION ( #38, #26 ) ;
#64 = CC_DESIGN_DATE_AND_TIME_ASSIGNMENT ( #95, #156, ( #154 ) ) ;
#65 = VERTEX_POINT ( 'NONE', #49 ) ;
#66 = DIRECTION ( 'NONE',  ( 3.491481338843133355E-15, -1.224646799147353207E-16, 1.000000000000000000 ) ) ;
#67 = PRODUCT ( '223', '223', '', ( #46 ) ) ;
#68 = DIRECTION ( 'NONE',  ( 3.491481338843133355E-15, -1.224646799147353207E-16, 1.000000000000000000 ) ) ;
#69 = DIRECTION ( 'NONE',  ( -3.491481338843133355E-15, 1.224646799147353207E-16, -1.000000000000000000 ) ) ;
#70 = CARTESIAN_POINT ( 'NONE',  ( 3.142333204958820020E-14, -1.102182119232617714E-15, 9.000000000000000000 ) ) ;
#71 =( GEOMETRIC_REPRESENTATION_CONTEXT ( 3 ) GLOBAL_UNCERTAINTY_ASSIGNED_CONTEXT ( ( #166 ) ) GLOBAL_UNIT_ASSIGNED_CONTEXT ( ( #122, #22, #90 ) ) REPRESENTATION_CONTEXT ( 'NONE', 'WORKASPACE' ) );
#72 = MANIFOLD_SOLID_BREP ( 'Corps-Déplacer/Copier1[1]', #114 ) ;
#73 = APPROVAL_PERSON_ORGANIZATION ( #100, #110, #43 ) ;
#74 = APPLICATION_CONTEXT ( 'configuration controlled 3d designs of mechanical parts and assemblies' ) ;
#75 = PERSON_AND_ORGANIZATION ( #38, #26 ) ;
#76 = EDGE_LOOP ( 'NONE', ( #127 ) ) ;
#77 = PERSON_AND_ORGANIZATION ( #38, #26 ) ;
#78 = CC_DESIGN_SECURITY_CLASSIFICATION ( #40, ( #141 ) ) ;
#79 = CALENDAR_DATE ( 2021, 6, 10 ) ;
#80 = APPROVAL_STATUS ( 'not_yet_approved' ) ;
#81 = EDGE_CURVE ( 'NONE', #147, #147, #150, .T. ) ;
#82 = AXIS2_PLACEMENT_3D ( 'NONE', #50, #102, #195 ) ;
#83 = EDGE_LOOP ( 'NONE', ( #99 ) ) ;
#84 = CARTESIAN_POINT ( 'NONE',  ( 3.142333204958820020E-14, 6.748919021978315445E-33, 9.000000000000000000 ) ) ;
#85 = CARTESIAN_POINT ( 'NONE',  ( 1.326762908760390423E-13, -4.653657836759941941E-15, 38.00000000000000000 ) ) ;
#86 = AXIS2_PLACEMENT_3D ( 'NONE', #165, #152, #12 ) ;
#87 = PLANE ( 'NONE',  #13 ) ;
#88 = EDGE_CURVE ( 'NONE', #65, #65, #55, .T. ) ;
#89 = APPLICATION_CONTEXT ( 'configuration controlled 3d designs of mechanical parts and assemblies' ) ;
#90 =( NAMED_UNIT ( * ) SI_UNIT ( $, .STERADIAN. ) SOLID_ANGLE_UNIT ( ) );
#91 = AXIS2_PLACEMENT_3D ( 'NONE', #85, #161, #105 ) ;
#92 = LOCAL_TIME ( 10, 24, 44.00000000000000000, #201 ) ;
#93 = ADVANCED_FACE ( 'NONE', ( #24, #160 ), #177, .T. ) ;
#94 = PERSON_AND_ORGANIZATION_ROLE ( 'creator' ) ;
#95 = DATE_AND_TIME ( #203, #115 ) ;
#96 = ORIENTED_EDGE ( 'NONE', *, *, #81, .T. ) ;
#97 = DIRECTION ( 'NONE',  ( 3.491481338843133355E-15, -1.224646799147353207E-16, 1.000000000000000000 ) ) ;
#98 = COORDINATED_UNIVERSAL_TIME_OFFSET ( 1, 0, .AHEAD. ) ;
#99 = ORIENTED_EDGE ( 'NONE', *, *, #88, .T. ) ;
#100 = PERSON_AND_ORGANIZATION ( #38, #26 ) ;
#101 = CARTESIAN_POINT ( 'NONE',  ( 1.319779946082704535E-13, -4.629164900776995227E-15, 37.79999999999999716 ) ) ;
#102 = DIRECTION ( 'NONE',  ( -3.491481338843133355E-15, 1.224646799147353207E-16, -1.000000000000000000 ) ) ;
#103 = CC_DESIGN_DATE_AND_TIME_ASSIGNMENT ( #159, #144, ( #40 ) ) ;
#104 = CC_DESIGN_APPROVAL ( #180, ( #141 ) ) ;
#105 = DIRECTION ( 'NONE',  ( 0.0000000000000000000, 1.000000000000000000, 0.0000000000000000000 ) ) ;
#106 = FACE_OUTER_BOUND ( 'NONE', #34, .T. ) ;
#107 = CC_DESIGN_PERSON_AND_ORGANIZATION_ASSIGNMENT ( #63, #155, ( #141 ) ) ;
#108 = LOCAL_TIME ( 10, 24, 44.00000000000000000, #109 ) ;
#109 = COORDINATED_UNIVERSAL_TIME_OFFSET ( 1, 0, .AHEAD. ) ;
#110 = APPROVAL ( #30, 'UNSPECIFIED' ) ;
#111 = CARTESIAN_POINT ( 'NONE',  ( 1.326762908760390423E-13, 5.249159239316431836E-33, 38.00000000000000000 ) ) ;
#112 = CALENDAR_DATE ( 2021, 6, 10 ) ;
#113 = PLANE ( 'NONE',  #8 ) ;
#114 = CLOSED_SHELL ( 'NONE', ( #167, #41, #181, #1 ) ) ;
#115 = LOCAL_TIME ( 10, 24, 44.00000000000000000, #171 ) ;
#116 = PERSON_AND_ORGANIZATION_ROLE ( 'design_owner' ) ;
#117 = ORIENTED_EDGE ( 'NONE', *, *, #173, .F. ) ;
#118 = APPLICATION_PROTOCOL_DEFINITION ( 'international standard', 'config_control_design', 1994, #74 ) ;
#119 = DIRECTION ( 'NONE',  ( -4.279844320860545916E-31, -1.000000000000000000, -1.204669080539455507E-16 ) ) ;
#120 = AXIS2_PLACEMENT_3D ( 'NONE', #47, #68, #2 ) ;
#121 = VERTEX_POINT ( 'NONE', #175 ) ;
#122 =( LENGTH_UNIT ( ) NAMED_UNIT ( * ) SI_UNIT ( .MILLI., .METRE. ) );
#123 = DIRECTION ( 'NONE',  ( 4.275831445896958607E-31, 1.000000000000000000, 1.224646799147353207E-16 ) ) ;
#124 = FACE_BOUND ( 'NONE', #76, .T. ) ;
#125 = APPROVAL ( #80, 'UNSPECIFIED' ) ;
#126 = PERSON_AND_ORGANIZATION_ROLE ( 'design_supplier' ) ;
#127 = ORIENTED_EDGE ( 'NONE', *, *, #39, .T. ) ;
#128 = PERSON_AND_ORGANIZATION ( #38, #26 ) ;
#129 = EDGE_LOOP ( 'NONE', ( #42 ) ) ;
#130 = SECURITY_CLASSIFICATION_LEVEL ( 'unclassified' ) ;
#131 = PERSON_AND_ORGANIZATION ( #38, #26 ) ;
#132 = FACE_OUTER_BOUND ( 'NONE', #57, .T. ) ;
#133 = CARTESIAN_POINT ( 'NONE',  ( 1.326762908760390423E-13, 0.6999999999999952927, 38.00000000000000000 ) ) ;
#134 = CC_DESIGN_PERSON_AND_ORGANIZATION_ASSIGNMENT ( #77, #94, ( #154 ) ) ;
#135 = DIRECTION ( 'NONE',  ( 4.279844320860545916E-31, 1.000000000000000000, 1.204669080539455507E-16 ) ) ;
#136 = FACE_OUTER_BOUND ( 'NONE', #15, .T. ) ;
#137 = DIRECTION ( 'NONE',  ( 0.0000000000000000000, 1.000000000000000000, 0.0000000000000000000 ) ) ;
#138 = CC_DESIGN_APPROVAL ( #125, ( #40 ) ) ;
#139 = AXIS2_PLACEMENT_3D ( 'NONE', #163, #20, #123 ) ;
#140 = PRODUCT_RELATED_PRODUCT_CATEGORY ( 'detail', '', ( #67 ) ) ;
#141 = PRODUCT_DEFINITION_FORMATION_WITH_SPECIFIED_SOURCE ( 'ANY', '', #67, .NOT_KNOWN. ) ;
#142 = DATE_AND_TIME ( #16, #197 ) ;
#143 = ORIENTED_EDGE ( 'NONE', *, *, #81, .F. ) ;
#144 = DATE_TIME_ROLE ( 'classification_date' ) ;
#145 = APPROVAL_DATE_TIME ( #158, #125 ) ;
#146 = CIRCLE ( 'NONE', #162, 0.8999999999999963585 ) ;
#147 = VERTEX_POINT ( 'NONE', #193 ) ;
#148 = PLANE ( 'NONE',  #120 ) ;
#149 = DIRECTION ( 'NONE',  ( -3.491481338843133355E-15, 1.224646799147353207E-16, -1.000000000000000000 ) ) ;
#150 = CIRCLE ( 'NONE', #198, 0.9000000000000000222 ) ;
#151 = DIRECTION ( 'NONE',  ( 0.0000000000000000000, 1.000000000000000000, 0.0000000000000000000 ) ) ;
#152 = DIRECTION ( 'NONE',  ( 0.0000000000000000000, 0.0000000000000000000, 1.000000000000000000 ) ) ;
#153 = CC_DESIGN_APPROVAL ( #110, ( #154 ) ) ;
#154 = PRODUCT_DEFINITION ( 'UNKNOWN', '', #141, #9 ) ;
#155 = PERSON_AND_ORGANIZATION_ROLE ( 'creator' ) ;
#156 = DATE_TIME_ROLE ( 'creation_date' ) ;
#157 = CC_DESIGN_PERSON_AND_ORGANIZATION_ASSIGNMENT ( #128, #190, ( #40 ) ) ;
#158 = DATE_AND_TIME ( #112, #92 ) ;
#159 = DATE_AND_TIME ( #187, #108 ) ;
#160 = FACE_OUTER_BOUND ( 'NONE', #189, .T. ) ;
#161 = DIRECTION ( 'NONE',  ( -3.491481338843133355E-15, 1.224646799147353207E-16, -1.000000000000000000 ) ) ;
#162 = AXIS2_PLACEMENT_3D ( 'NONE', #70, #5, #137 ) ;
#163 = CARTESIAN_POINT ( 'NONE',  ( 0.0000000000000000000, 0.0000000000000000000, 0.0000000000000000000 ) ) ;
#164 = VERTEX_POINT ( 'NONE', #25 ) ;
#165 = CARTESIAN_POINT ( 'NONE',  ( 0.0000000000000000000, 0.0000000000000000000, 0.0000000000000000000 ) ) ;
#166 = UNCERTAINTY_MEASURE_WITH_UNIT (LENGTH_MEASURE( 1.000000000000000082E-05 ), #122, 'distance_accuracy_value', 'NONE');
#167 = ADVANCED_FACE ( 'NONE', ( #132 ), #87, .F. ) ;
#168 = APPROVAL_STATUS ( 'not_yet_approved' ) ;
#169 = LOCAL_TIME ( 10, 24, 44.00000000000000000, #182 ) ;
#170 = FACE_OUTER_BOUND ( 'NONE', #60, .T. ) ;
#171 = COORDINATED_UNIVERSAL_TIME_OFFSET ( 1, 0, .AHEAD. ) ;
#172 = PERSON_AND_ORGANIZATION ( #38, #26 ) ;
#173 = EDGE_CURVE ( 'NONE', #121, #121, #146, .T. ) ;
#174 = CIRCLE ( 'NONE', #91, 0.6999999999999999556 ) ;
#175 = CARTESIAN_POINT ( 'NONE',  ( 3.142333204958820020E-14, 0.8999999999999953593, 9.000000000000000000 ) ) ;
#176 = DIRECTION ( 'NONE',  ( -3.491481338843133355E-15, 1.224646799147353207E-16, -1.000000000000000000 ) ) ;
#177 = CYLINDRICAL_SURFACE ( 'NONE', #139, 0.8999999999999958034 ) ;
#178 = AXIS2_PLACEMENT_3D ( 'NONE', #202, #97, #119 ) ;
#179 = CARTESIAN_POINT ( 'NONE',  ( 1.326762908760390423E-13, -4.653657836759941941E-15, 38.00000000000000000 ) ) ;
#180 = APPROVAL ( #168, 'UNSPECIFIED' ) ;
#181 = ADVANCED_FACE ( 'NONE', ( #52, #124 ), #59, .T. ) ;
#182 = COORDINATED_UNIVERSAL_TIME_OFFSET ( 1, 0, .AHEAD. ) ;
#183 = ORIENTED_EDGE ( 'NONE', *, *, #56, .F. ) ;
#184 = APPROVAL_ROLE ( '' ) ;
#185 = EDGE_LOOP ( 'NONE', ( #143 ) ) ;
#186 = ADVANCED_BREP_SHAPE_REPRESENTATION ( '223', ( #72, #7, #86 ), #71 ) ;
#187 = CALENDAR_DATE ( 2021, 6, 10 ) ;
#188 = APPROVAL_PERSON_ORGANIZATION ( #131, #125, #58 ) ;
#189 = EDGE_LOOP ( 'NONE', ( #44 ) ) ;
#190 = PERSON_AND_ORGANIZATION_ROLE ( 'classification_officer' ) ;
#191 = ADVANCED_FACE ( 'NONE', ( #106 ), #148, .T. ) ;
#192 = DIRECTION ( 'NONE',  ( -3.491481338843133355E-15, 1.224646799147353207E-16, -1.000000000000000000 ) ) ;
#193 = CARTESIAN_POINT ( 'NONE',  ( 1.319779946082704535E-13, 0.8999999999999953593, 37.79999999999999716 ) ) ;
#194 = CARTESIAN_POINT ( 'NONE',  ( 1.814226921766485635E-15, -6.363451432349481425E-17, 0.5196152422706664664 ) ) ;
#195 = DIRECTION ( 'NONE',  ( 4.275831445896958607E-31, 1.000000000000000000, 1.224646799147353207E-16 ) ) ;
#196 = CARTESIAN_POINT ( 'NONE',  ( 3.142333204958820020E-14, -1.102182119232617714E-15, 9.000000000000000000 ) ) ;
#197 = LOCAL_TIME ( 10, 24, 44.00000000000000000, #98 ) ;
#198 = AXIS2_PLACEMENT_3D ( 'NONE', #101, #176, #151 ) ;
#199 = APPROVAL_DATE_TIME ( #142, #110 ) ;
#200 = AXIS2_PLACEMENT_3D ( 'NONE', #194, #69, #135 ) ;
#201 = COORDINATED_UNIVERSAL_TIME_OFFSET ( 1, 0, .AHEAD. ) ;
#202 = CARTESIAN_POINT ( 'NONE',  ( 1.814226921766485635E-15, -6.363451432349481425E-17, 0.5196152422706664664 ) ) ;
#203 = CALENDAR_DATE ( 2021, 6, 10 ) ;
ENDSEC;
END-ISO-10303-21;
