ISO-10303-21;
HEADER;
FILE_DESCRIPTION (( 'STEP AP203' ),
    '1' );
FILE_NAME ('22294.step',
    '2021-10-07T13:46:28',
    ( '' ),
    ( '' ),
    'SwSTEP 2.0',
    'SolidWorks 2019',
    '' );
FILE_SCHEMA (( 'CONFIG_CONTROL_DESIGN' ));
ENDSEC;

DATA;
#1 =( GEOMETRIC_REPRESENTATION_CONTEXT ( 3 ) GLOBAL_UNCERTAINTY_ASSIGNED_CONTEXT ( ( #39 ) ) GLOBAL_UNIT_ASSIGNED_CONTEXT ( ( #151, #206, #76 ) ) REPRESENTATION_CONTEXT ( 'NONE', 'WORKASPACE' ) );
#2 = CC_DESIGN_PERSON_AND_ORGANIZATION_ASSIGNMENT ( #3, #133, ( #32 ) ) ;
#3 = PERSON_AND_ORGANIZATION ( #7, #14 ) ;
#4 = AXIS2_PLACEMENT_3D ( 'NONE', #188, #221, #114 ) ;
#5 = APPLICATION_PROTOCOL_DEFINITION ( 'international standard', 'config_control_design', 1994, #121 ) ;
#6 = EDGE_LOOP ( 'NONE', ( #91 ) ) ;
#7 = PERSON ( 'UNSPECIFIED', 'UNSPECIFIED', 'UNSPECIFIED', ('UNSPECIFIED'), ('UNSPECIFIED'), ('UNSPECIFIED') ) ;
#8 = AXIS2_PLACEMENT_3D ( 'NONE', #78, #159, #86 ) ;
#9 = ADVANCED_FACE ( 'NONE', ( #182 ), #53, .F. ) ;
#10 = ORIENTED_EDGE ( 'NONE', *, *, #160, .T. ) ;
#11 = ORIENTED_EDGE ( 'NONE', *, *, #111, .F. ) ;
#12 = CALENDAR_DATE ( 2021, 7, 10 ) ;
#13 = DIRECTION ( 'NONE',  ( 0.0000000000000000000, 1.000000000000000000, 0.0000000000000000000 ) ) ;
#14 = ORGANIZATION ( 'UNSPECIFIED', 'UNSPECIFIED', '' ) ;
#15 = DIRECTION ( 'NONE',  ( 3.491481338843133355E-15, -1.224646799147353207E-16, 1.000000000000000000 ) ) ;
#16 = DIRECTION ( 'NONE',  ( -3.491481338843133355E-15, 1.224646799147353207E-16, -1.000000000000000000 ) ) ;
#17 = CARTESIAN_POINT ( 'NONE',  ( 1.955229549752154679E-14, 2.737061603357876244E-33, 5.599999999999999645 ) ) ;
#18 = DESIGN_CONTEXT ( 'detailed design', #154, 'design' ) ;
#19 = CARTESIAN_POINT ( 'NONE',  ( 1.955229549752154679E-14, 0.3649999999999987699, 5.599999999999999645 ) ) ;
#20 = CIRCLE ( 'NONE', #24, 0.3649999999999994915 ) ;
#21 = APPROVAL_STATUS ( 'not_yet_approved' ) ;
#22 = CARTESIAN_POINT ( 'NONE',  ( 1.955229549752154679E-14, -6.858022075225177566E-16, 5.599999999999999645 ) ) ;
#23 = ORIENTED_EDGE ( 'NONE', *, *, #202, .T. ) ;
#24 = AXIS2_PLACEMENT_3D ( 'NONE', #22, #25, #13 ) ;
#25 = DIRECTION ( 'NONE',  ( -3.491481338843133355E-15, 1.224646799147353207E-16, -1.000000000000000000 ) ) ;
#26 = FACE_OUTER_BOUND ( 'NONE', #164, .T. ) ;
#27 = DIRECTION ( 'NONE',  ( -3.491481338843133355E-15, 1.224646799147353207E-16, -1.000000000000000000 ) ) ;
#28 = FACE_OUTER_BOUND ( 'NONE', #107, .T. ) ;
#29 = PLANE ( 'NONE',  #49 ) ;
#30 = FACE_OUTER_BOUND ( 'NONE', #54, .T. ) ;
#31 = CONICAL_SURFACE ( 'NONE', #190, 0.3649999999999983258, 1.029744258676649649 ) ;
#32 = PRODUCT_DEFINITION_FORMATION_WITH_SPECIFIED_SOURCE ( 'ANY', '', #204, .NOT_KNOWN. ) ;
#33 = SECURITY_CLASSIFICATION_LEVEL ( 'unclassified' ) ;
#34 = PERSON_AND_ORGANIZATION_ROLE ( 'classification_officer' ) ;
#35 = CIRCLE ( 'NONE', #147, 0.4999999999999970579 ) ;
#36 = CC_DESIGN_PERSON_AND_ORGANIZATION_ASSIGNMENT ( #220, #212, ( #32 ) ) ;
#37 = DIRECTION ( 'NONE',  ( 3.491481338843133355E-15, -1.224646799147353207E-16, 1.000000000000000000 ) ) ;
#38 = EDGE_LOOP ( 'NONE', ( #213 ) ) ;
#39 = UNCERTAINTY_MEASURE_WITH_UNIT (LENGTH_MEASURE( 1.000000000000000082E-05 ), #151, 'distance_accuracy_value', 'NONE');
#40 = DIRECTION ( 'NONE',  ( 3.491481338843133355E-15, -1.224646799147353207E-16, 1.000000000000000000 ) ) ;
#41 = PERSON_AND_ORGANIZATION ( #7, #14 ) ;
#42 = ORIENTED_EDGE ( 'NONE', *, *, #178, .F. ) ;
#43 = DATE_AND_TIME ( #105, #186 ) ;
#44 = ADVANCED_FACE ( 'NONE', ( #93, #74 ), #92, .T. ) ;
#45 = CARTESIAN_POINT ( 'NONE',  ( 0.0000000000000000000, 0.0000000000000000000, 0.0000000000000000000 ) ) ;
#46 = PRODUCT_DEFINITION_SHAPE ( 'NONE', 'NONE',  #81 ) ;
#47 = DIRECTION ( 'NONE',  ( -3.491481338843133355E-15, 1.224646799147353207E-16, -1.000000000000000000 ) ) ;
#48 = EDGE_CURVE ( 'NONE', #152, #152, #20, .T. ) ;
#49 = AXIS2_PLACEMENT_3D ( 'NONE', #17, #15, #65 ) ;
#50 = PERSON_AND_ORGANIZATION ( #7, #14 ) ;
#51 = CALENDAR_DATE ( 2021, 7, 10 ) ;
#52 = CC_DESIGN_DATE_AND_TIME_ASSIGNMENT ( #43, #176, ( #98 ) ) ;
#53 = PLANE ( 'NONE',  #144 ) ;
#54 = EDGE_LOOP ( 'NONE', ( #180 ) ) ;
#55 = DIRECTION ( 'NONE',  ( 0.0000000000000000000, 1.000000000000000000, 0.0000000000000000000 ) ) ;
#56 = DATE_AND_TIME ( #12, #124 ) ;
#57 = CIRCLE ( 'NONE', #214, 0.5000000000000000000 ) ;
#58 = CC_DESIGN_SECURITY_CLASSIFICATION ( #98, ( #32 ) ) ;
#59 = PLANE ( 'NONE',  #109 ) ;
#60 = DATE_TIME_ROLE ( 'creation_date' ) ;
#61 = VERTEX_POINT ( 'NONE', #171 ) ;
#62 = CC_DESIGN_PERSON_AND_ORGANIZATION_ASSIGNMENT ( #50, #34, ( #98 ) ) ;
#63 = APPROVAL ( #21, 'UNSPECIFIED' ) ;
#64 = DIRECTION ( 'NONE',  ( -3.491481338843133355E-15, 1.224646799147353207E-16, -1.000000000000000000 ) ) ;
#65 = DIRECTION ( 'NONE',  ( -4.275831445896958607E-31, -1.000000000000000000, -1.224646799147353207E-16 ) ) ;
#66 = CARTESIAN_POINT ( 'NONE',  ( 1.043952920314096810E-13, 0.4999999999999963363, 29.89999999999999858 ) ) ;
#67 = LOCAL_TIME ( 15, 46, 28.00000000000000000, #95 ) ;
#68 = AXIS2_PLACEMENT_3D ( 'NONE', #219, #106, #108 ) ;
#69 = DATE_AND_TIME ( #51, #67 ) ;
#70 = MANIFOLD_SOLID_BREP ( 'Corps-Déplacer/Copier1[1]', #73 ) ;
#71 = APPROVAL_STATUS ( 'not_yet_approved' ) ;
#72 = ORIENTED_EDGE ( 'NONE', *, *, #178, .T. ) ;
#73 = CLOSED_SHELL ( 'NONE', ( #9, #44, #156, #96, #131 ) ) ;
#74 = FACE_OUTER_BOUND ( 'NONE', #38, .T. ) ;
#75 = EDGE_LOOP ( 'NONE', ( #198 ) ) ;
#76 =( NAMED_UNIT ( * ) SI_UNIT ( $, .STERADIAN. ) SOLID_ANGLE_UNIT ( ) );
#77 = DIRECTION ( 'NONE',  ( -5.276520395581492409E-31, -1.000000000000000000, -1.485208455459601960E-16 ) ) ;
#78 = CARTESIAN_POINT ( 'NONE',  ( 0.0000000000000000000, 0.0000000000000000000, 0.0000000000000000000 ) ) ;
#79 = AXIS2_PLACEMENT_3D ( 'NONE', #99, #16, #116 ) ;
#80 = FACE_OUTER_BOUND ( 'NONE', #125, .T. ) ;
#81 = PRODUCT_DEFINITION ( 'UNKNOWN', '', #32, #18 ) ;
#82 = CARTESIAN_POINT ( 'NONE',  ( 1.047444401652940007E-13, 0.3999999999999963585, 30.00000000000000000 ) ) ;
#83 = VERTEX_POINT ( 'NONE', #66 ) ;
#84 = DIRECTION ( 'NONE',  ( 4.275831445896958607E-31, 1.000000000000000000, 1.224646799147353207E-16 ) ) ;
#85 = CC_DESIGN_APPROVAL ( #63, ( #98 ) ) ;
#86 = DIRECTION ( 'NONE',  ( 1.000000000000000000, 0.0000000000000000000, 0.0000000000000000000 ) ) ;
#87 = AXIS2_PLACEMENT_3D ( 'NONE', #45, #223, #84 ) ;
#88 = CC_DESIGN_DATE_AND_TIME_ASSIGNMENT ( #140, #60, ( #81 ) ) ;
#89 = PERSON_AND_ORGANIZATION ( #7, #14 ) ;
#90 = DIRECTION ( 'NONE',  ( 4.275831445896958607E-31, 1.000000000000000000, 1.224646799147353207E-16 ) ) ;
#91 = ORIENTED_EDGE ( 'NONE', *, *, #209, .T. ) ;
#92 = CONICAL_SURFACE ( 'NONE', #68, 0.4999999999999970579, 0.2617993877991418028 ) ;
#93 = FACE_BOUND ( 'NONE', #112, .T. ) ;
#94 = DIRECTION ( 'NONE',  ( 0.0000000000000000000, 1.000000000000000000, 0.0000000000000000000 ) ) ;
#95 = COORDINATED_UNIVERSAL_TIME_OFFSET ( 1, 0, .AHEAD. ) ;
#96 = ADVANCED_FACE ( 'NONE', ( #26, #127 ), #117, .T. ) ;
#97 = DIRECTION ( 'NONE',  ( 0.0000000000000000000, 1.000000000000000000, 0.0000000000000000000 ) ) ;
#98 = SECURITY_CLASSIFICATION ( '', '', #33 ) ;
#99 = CARTESIAN_POINT ( 'NONE',  ( 7.657311780818728808E-16, -2.685823423464183185E-17, 0.2193141259450609171 ) ) ;
#100 = VERTEX_POINT ( 'NONE', #19 ) ;
#101 = CARTESIAN_POINT ( 'NONE',  ( 1.047444401652940007E-13, -3.673940397442059178E-15, 30.00000000000000000 ) ) ;
#102 = PRODUCT_RELATED_PRODUCT_CATEGORY ( 'detail', '', ( #204 ) ) ;
#103 = LOCAL_TIME ( 15, 46, 28.00000000000000000, #192 ) ;
#104 = COORDINATED_UNIVERSAL_TIME_OFFSET ( 1, 0, .AHEAD. ) ;
#105 = CALENDAR_DATE ( 2021, 7, 10 ) ;
#106 = DIRECTION ( 'NONE',  ( 3.491481338843133355E-15, -1.224646799147353207E-16, 1.000000000000000000 ) ) ;
#107 = EDGE_LOOP ( 'NONE', ( #23 ) ) ;
#108 = DIRECTION ( 'NONE',  ( 0.0000000000000000000, -1.000000000000000000, 0.0000000000000000000 ) ) ;
#109 = AXIS2_PLACEMENT_3D ( 'NONE', #132, #200, #90 ) ;
#110 = PERSON_AND_ORGANIZATION ( #7, #14 ) ;
#111 = EDGE_CURVE ( 'NONE', #61, #61, #35, .T. ) ;
#112 = EDGE_LOOP ( 'NONE', ( #128 ) ) ;
#113 = DATE_AND_TIME ( #158, #194 ) ;
#114 = DIRECTION ( 'NONE',  ( 4.275831445896959482E-31, 1.000000000000000000, 1.224646799147353207E-16 ) ) ;
#115 = CC_DESIGN_APPROVAL ( #142, ( #32 ) ) ;
#116 = DIRECTION ( 'NONE',  ( 5.276520395581492409E-31, 1.000000000000000000, 1.485208455459601960E-16 ) ) ;
#117 = CONICAL_SURFACE ( 'NONE', #137, 0.4000000000000000222, 0.7853981633974512766 ) ;
#118 = CC_DESIGN_PERSON_AND_ORGANIZATION_ASSIGNMENT ( #89, #218, ( #81 ) ) ;
#119 = CC_DESIGN_APPROVAL ( #161, ( #81 ) ) ;
#120 = APPROVAL_DATE_TIME ( #69, #161 ) ;
#121 = APPLICATION_CONTEXT ( 'configuration controlled 3d designs of mechanical parts and assemblies' ) ;
#122 = APPLICATION_PROTOCOL_DEFINITION ( 'international standard', 'config_control_design', 1994, #154 ) ;
#123 = SHAPE_DEFINITION_REPRESENTATION ( #46, #181 ) ;
#124 = LOCAL_TIME ( 15, 46, 28.00000000000000000, #104 ) ;
#125 = EDGE_LOOP ( 'NONE', ( #11 ) ) ;
#126 = ADVANCED_FACE ( 'NONE', ( #129 ), #31, .T. ) ;
#127 = FACE_BOUND ( 'NONE', #162, .T. ) ;
#128 = ORIENTED_EDGE ( 'NONE', *, *, #48, .F. ) ;
#129 = FACE_OUTER_BOUND ( 'NONE', #6, .T. ) ;
#130 = CIRCLE ( 'NONE', #79, 0.3649999999999983258 ) ;
#131 = ADVANCED_FACE ( 'NONE', ( #148 ), #59, .F. ) ;
#132 = CARTESIAN_POINT ( 'NONE',  ( 1.047444401652940007E-13, 2.999519565323660135E-33, 30.00000000000000000 ) ) ;
#133 = PERSON_AND_ORGANIZATION_ROLE ( 'design_supplier' ) ;
#134 = VERTEX_POINT ( 'NONE', #82 ) ;
#135 = CYLINDRICAL_SURFACE ( 'NONE', #4, 0.4999999999999985012 ) ;
#136 = FACE_OUTER_BOUND ( 'NONE', #75, .T. ) ;
#137 = AXIS2_PLACEMENT_3D ( 'NONE', #183, #166, #94 ) ;
#138 = COORDINATED_UNIVERSAL_TIME_OFFSET ( 1, 0, .AHEAD. ) ;
#139 = APPROVAL_ROLE ( '' ) ;
#140 = DATE_AND_TIME ( #175, #103 ) ;
#141 = ORIENTED_EDGE ( 'NONE', *, *, #160, .F. ) ;
#142 = APPROVAL ( #193, 'UNSPECIFIED' ) ;
#143 = CC_DESIGN_PERSON_AND_ORGANIZATION_ASSIGNMENT ( #211, #149, ( #204 ) ) ;
#144 = AXIS2_PLACEMENT_3D ( 'NONE', #179, #37, #215 ) ;
#145 = MANIFOLD_SOLID_BREP ( 'Corps-Déplacer/Copier1[2]', #197 ) ;
#146 = CARTESIAN_POINT ( 'NONE',  ( 2.131139757380412906E-14, -7.475032025450696284E-16, 6.103826859021804552 ) ) ;
#147 = AXIS2_PLACEMENT_3D ( 'NONE', #146, #217, #55 ) ;
#148 = FACE_OUTER_BOUND ( 'NONE', #163, .T. ) ;
#149 = PERSON_AND_ORGANIZATION_ROLE ( 'design_owner' ) ;
#150 = FACE_OUTER_BOUND ( 'NONE', #216, .T. ) ;
#151 =( LENGTH_UNIT ( ) NAMED_UNIT ( * ) SI_UNIT ( .MILLI., .METRE. ) );
#152 = VERTEX_POINT ( 'NONE', #169 ) ;
#153 = VERTEX_POINT ( 'NONE', #203 ) ;
#154 = APPLICATION_CONTEXT ( 'configuration controlled 3d designs of mechanical parts and assemblies' ) ;
#155 = APPROVAL_PERSON_ORGANIZATION ( #167, #142, #165 ) ;
#156 = ADVANCED_FACE ( 'NONE', ( #80, #150 ), #135, .T. ) ;
#157 = MECHANICAL_CONTEXT ( 'NONE', #121, 'mechanical' ) ;
#158 = CALENDAR_DATE ( 2021, 7, 10 ) ;
#159 = DIRECTION ( 'NONE',  ( 0.0000000000000000000, 0.0000000000000000000, 1.000000000000000000 ) ) ;
#160 = EDGE_CURVE ( 'NONE', #83, #83, #57, .T. ) ;
#161 = APPROVAL ( #71, 'UNSPECIFIED' ) ;
#162 = EDGE_LOOP ( 'NONE', ( #72 ) ) ;
#163 = EDGE_LOOP ( 'NONE', ( #42 ) ) ;
#164 = EDGE_LOOP ( 'NONE', ( #141 ) ) ;
#165 = APPROVAL_ROLE ( '' ) ;
#166 = DIRECTION ( 'NONE',  ( -3.491481338843133355E-15, 1.224646799147353207E-16, -1.000000000000000000 ) ) ;
#167 = PERSON_AND_ORGANIZATION ( #7, #14 ) ;
#168 = DIRECTION ( 'NONE',  ( 0.0000000000000000000, 1.000000000000000000, 0.0000000000000000000 ) ) ;
#169 = CARTESIAN_POINT ( 'NONE',  ( 1.955229549752154679E-14, 0.3649999999999987699, 5.599999999999999645 ) ) ;
#170 = ADVANCED_FACE ( 'NONE', ( #136 ), #29, .T. ) ;
#171 = CARTESIAN_POINT ( 'NONE',  ( 2.131139757380412906E-14, 0.4999999999999963363, 6.103826859021804552 ) ) ;
#172 = DIRECTION ( 'NONE',  ( 0.0000000000000000000, 1.000000000000000000, 0.0000000000000000000 ) ) ;
#173 = AXIS2_PLACEMENT_3D ( 'NONE', #101, #27, #97 ) ;
#174 = APPROVAL_PERSON_ORGANIZATION ( #110, #63, #185 ) ;
#175 = CALENDAR_DATE ( 2021, 7, 10 ) ;
#176 = DATE_TIME_ROLE ( 'classification_date' ) ;
#177 = AXIS2_PLACEMENT_3D ( 'NONE', #207, #47, #172 ) ;
#178 = EDGE_CURVE ( 'NONE', #134, #134, #222, .T. ) ;
#179 = CARTESIAN_POINT ( 'NONE',  ( 1.955229549752154679E-14, 2.737061603357876244E-33, 5.599999999999999645 ) ) ;
#180 = ORIENTED_EDGE ( 'NONE', *, *, #209, .F. ) ;
#181 = ADVANCED_BREP_SHAPE_REPRESENTATION ( '22294', ( #70, #145, #8 ), #1 ) ;
#182 = FACE_OUTER_BOUND ( 'NONE', #195, .T. ) ;
#183 = CARTESIAN_POINT ( 'NONE',  ( 1.047444401652940007E-13, -3.673940397442059178E-15, 30.00000000000000000 ) ) ;
#184 = APPROVAL_DATE_TIME ( #56, #63 ) ;
#185 = APPROVAL_ROLE ( '' ) ;
#186 = LOCAL_TIME ( 15, 46, 28.00000000000000000, #201 ) ;
#187 = ADVANCED_FACE ( 'NONE', ( #30, #28 ), #189, .T. ) ;
#188 = CARTESIAN_POINT ( 'NONE',  ( 0.0000000000000000000, 0.0000000000000000000, 0.0000000000000000000 ) ) ;
#189 = CYLINDRICAL_SURFACE ( 'NONE', #87, 0.3649999999999988809 ) ;
#190 = AXIS2_PLACEMENT_3D ( 'NONE', #199, #40, #77 ) ;
#191 = CIRCLE ( 'NONE', #177, 0.3649999999999994915 ) ;
#192 = COORDINATED_UNIVERSAL_TIME_OFFSET ( 1, 0, .AHEAD. ) ;
#193 = APPROVAL_STATUS ( 'not_yet_approved' ) ;
#194 = LOCAL_TIME ( 15, 46, 28.00000000000000000, #138 ) ;
#195 = EDGE_LOOP ( 'NONE', ( #196 ) ) ;
#196 = ORIENTED_EDGE ( 'NONE', *, *, #48, .T. ) ;
#197 = CLOSED_SHELL ( 'NONE', ( #126, #187, #170 ) ) ;
#198 = ORIENTED_EDGE ( 'NONE', *, *, #202, .F. ) ;
#199 = CARTESIAN_POINT ( 'NONE',  ( 7.657311780818728808E-16, -2.685823423464183185E-17, 0.2193141259450609171 ) ) ;
#200 = DIRECTION ( 'NONE',  ( -3.491481338843133355E-15, 1.224646799147353207E-16, -1.000000000000000000 ) ) ;
#201 = COORDINATED_UNIVERSAL_TIME_OFFSET ( 1, 0, .AHEAD. ) ;
#202 = EDGE_CURVE ( 'NONE', #100, #100, #191, .T. ) ;
#203 = CARTESIAN_POINT ( 'NONE',  ( 7.657311780818730781E-16, 0.3649999999999983258, 0.2193141259450609726 ) ) ;
#204 = PRODUCT ( '22294', '22294', '', ( #157 ) ) ;
#205 = APPROVAL_PERSON_ORGANIZATION ( #41, #161, #139 ) ;
#206 =( NAMED_UNIT ( * ) PLANE_ANGLE_UNIT ( ) SI_UNIT ( $, .RADIAN. ) );
#207 = CARTESIAN_POINT ( 'NONE',  ( 1.955229549752154679E-14, -6.858022075225177566E-16, 5.599999999999999645 ) ) ;
#208 = CARTESIAN_POINT ( 'NONE',  ( 1.043952920314096810E-13, -3.661693929450586610E-15, 29.89999999999999858 ) ) ;
#209 = EDGE_CURVE ( 'NONE', #153, #153, #130, .T. ) ;
#210 = APPROVAL_DATE_TIME ( #113, #142 ) ;
#211 = PERSON_AND_ORGANIZATION ( #7, #14 ) ;
#212 = PERSON_AND_ORGANIZATION_ROLE ( 'creator' ) ;
#213 = ORIENTED_EDGE ( 'NONE', *, *, #111, .T. ) ;
#214 = AXIS2_PLACEMENT_3D ( 'NONE', #208, #64, #168 ) ;
#215 = DIRECTION ( 'NONE',  ( -4.275831445896958607E-31, -1.000000000000000000, -1.224646799147353207E-16 ) ) ;
#216 = EDGE_LOOP ( 'NONE', ( #10 ) ) ;
#217 = DIRECTION ( 'NONE',  ( -3.491481338843133355E-15, 1.224646799147353207E-16, -1.000000000000000000 ) ) ;
#218 = PERSON_AND_ORGANIZATION_ROLE ( 'creator' ) ;
#219 = CARTESIAN_POINT ( 'NONE',  ( 2.131139757380412906E-14, -7.475032025450696284E-16, 6.103826859021804552 ) ) ;
#220 = PERSON_AND_ORGANIZATION ( #7, #14 ) ;
#221 = DIRECTION ( 'NONE',  ( -3.491481338843133355E-15, 1.224646799147353207E-16, -1.000000000000000000 ) ) ;
#222 = CIRCLE ( 'NONE', #173, 0.4000000000000000222 ) ;
#223 = DIRECTION ( 'NONE',  ( -3.491481338843133355E-15, 1.224646799147353207E-16, -1.000000000000000000 ) ) ;
ENDSEC;
END-ISO-10303-21;
