ISO-10303-21;
HEADER;
FILE_DESCRIPTION (( 'STEP AP203' ),
    '1' );
FILE_NAME ('222.step',
    '2021-10-06T08:24:42',
    ( '' ),
    ( '' ),
    'SwSTEP 2.0',
    'SolidWorks 2019',
    '' );
FILE_SCHEMA (( 'CONFIG_CONTROL_DESIGN' ));
ENDSEC;

DATA;
#1 = EDGE_LOOP ( 'NONE', ( #201 ) ) ;
#2 =( LENGTH_UNIT ( ) NAMED_UNIT ( * ) SI_UNIT ( .MILLI., .METRE. ) );
#3 = ORIENTED_EDGE ( 'NONE', *, *, #163, .F. ) ;
#4 = CALENDAR_DATE ( 2021, 6, 10 ) ;
#5 = ORIENTED_EDGE ( 'NONE', *, *, #56, .T. ) ;
#6 = FACE_OUTER_BOUND ( 'NONE', #113, .T. ) ;
#7 = ADVANCED_FACE ( 'NONE', ( #73 ), #126, .T. ) ;
#8 = LOCAL_TIME ( 10, 24, 42.00000000000000000, #68 ) ;
#9 = CYLINDRICAL_SURFACE ( 'NONE', #50, 0.8499999999999980904 ) ;
#10 = PRODUCT_DEFINITION_SHAPE ( 'NONE', 'NONE',  #175 ) ;
#11 = PRODUCT_DEFINITION_FORMATION_WITH_SPECIFIED_SOURCE ( 'ANY', '', #64, .NOT_KNOWN. ) ;
#12 = DATE_TIME_ROLE ( 'creation_date' ) ;
#13 = CC_DESIGN_DATE_AND_TIME_ASSIGNMENT ( #154, #12, ( #175 ) ) ;
#14 = AXIS2_PLACEMENT_3D ( 'NONE', #89, #129, #192 ) ;
#15 = PERSON_AND_ORGANIZATION_ROLE ( 'creator' ) ;
#16 = APPROVAL_DATE_TIME ( #33, #182 ) ;
#17 = EDGE_LOOP ( 'NONE', ( #101 ) ) ;
#18 = EDGE_LOOP ( 'NONE', ( #85 ) ) ;
#19 = CARTESIAN_POINT ( 'NONE',  ( 0.0000000000000000000, 0.0000000000000000000, 0.0000000000000000000 ) ) ;
#20 = FACE_BOUND ( 'NONE', #18, .T. ) ;
#21 = VERTEX_POINT ( 'NONE', #54 ) ;
#22 = EDGE_LOOP ( 'NONE', ( #174 ) ) ;
#23 = CARTESIAN_POINT ( 'NONE',  ( 1.319779946082704535E-13, 0.8499999999999953149, 37.79999999999999716 ) ) ;
#24 = ADVANCED_FACE ( 'NONE', ( #55 ), #111, .F. ) ;
#25 = CARTESIAN_POINT ( 'NONE',  ( 1.326762908760390423E-13, 4.874219293650967434E-33, 38.00000000000000000 ) ) ;
#26 = FACE_OUTER_BOUND ( 'NONE', #1, .T. ) ;
#27 = CIRCLE ( 'NONE', #148, 0.8499999999999964251 ) ;
#28 = DATE_AND_TIME ( #186, #71 ) ;
#29 = APPROVAL_PERSON_ORGANIZATION ( #93, #155, #136 ) ;
#30 = APPROVAL_STATUS ( 'not_yet_approved' ) ;
#31 = CC_DESIGN_PERSON_AND_ORGANIZATION_ASSIGNMENT ( #190, #188, ( #64 ) ) ;
#32 = DIRECTION ( 'NONE',  ( -3.491481338843133355E-15, 1.224646799147353207E-16, -1.000000000000000000 ) ) ;
#33 = DATE_AND_TIME ( #169, #66 ) ;
#34 = EDGE_LOOP ( 'NONE', ( #3 ) ) ;
#35 = ORIENTED_EDGE ( 'NONE', *, *, #152, .F. ) ;
#36 = DIRECTION ( 'NONE',  ( -3.491481338843133355E-15, 1.224646799147353207E-16, -1.000000000000000000 ) ) ;
#37 = DIRECTION ( 'NONE',  ( -4.275831445896958607E-31, -1.000000000000000000, -1.224646799147353207E-16 ) ) ;
#38 = CC_DESIGN_PERSON_AND_ORGANIZATION_ASSIGNMENT ( #70, #121, ( #11 ) ) ;
#39 = AXIS2_PLACEMENT_3D ( 'NONE', #200, #185, #172 ) ;
#40 = APPROVAL_STATUS ( 'not_yet_approved' ) ;
#41 =( NAMED_UNIT ( * ) SI_UNIT ( $, .STERADIAN. ) SOLID_ANGLE_UNIT ( ) );
#42 = SECURITY_CLASSIFICATION ( '', '', #108 ) ;
#43 = DIRECTION ( 'NONE',  ( -3.491481338843133355E-15, 1.224646799147353207E-16, -1.000000000000000000 ) ) ;
#44 = ORGANIZATION ( 'UNSPECIFIED', 'UNSPECIFIED', '' ) ;
#45 = CALENDAR_DATE ( 2021, 6, 10 ) ;
#46 = AXIS2_PLACEMENT_3D ( 'NONE', #19, #36, #86 ) ;
#47 = ADVANCED_FACE ( 'NONE', ( #160, #20 ), #165, .T. ) ;
#48 = APPROVAL_DATE_TIME ( #199, #155 ) ;
#49 = COORDINATED_UNIVERSAL_TIME_OFFSET ( 1, 0, .AHEAD. ) ;
#50 = AXIS2_PLACEMENT_3D ( 'NONE', #130, #193, #116 ) ;
#51 = APPROVAL_ROLE ( '' ) ;
#52 = APPROVAL_ROLE ( '' ) ;
#53 = DIRECTION ( 'NONE',  ( 3.491481338843133355E-15, -1.224646799147353207E-16, 1.000000000000000000 ) ) ;
#54 = CARTESIAN_POINT ( 'NONE',  ( 3.142333204958820020E-14, 0.8499999999999953149, 9.000000000000000000 ) ) ;
#55 = FACE_OUTER_BOUND ( 'NONE', #123, .T. ) ;
#56 = EDGE_CURVE ( 'NONE', #145, #145, #171, .T. ) ;
#57 = CC_DESIGN_APPROVAL ( #135, ( #175 ) ) ;
#58 = FACE_OUTER_BOUND ( 'NONE', #142, .T. ) ;
#59 = CARTESIAN_POINT ( 'NONE',  ( 1.713436537223902552E-15, -6.009926352774508591E-17, 0.4907477288111848357 ) ) ;
#60 = CC_DESIGN_SECURITY_CLASSIFICATION ( #42, ( #11 ) ) ;
#61 = PRODUCT_RELATED_PRODUCT_CATEGORY ( 'detail', '', ( #64 ) ) ;
#62 = PERSON ( 'UNSPECIFIED', 'UNSPECIFIED', 'UNSPECIFIED', ('UNSPECIFIED'), ('UNSPECIFIED'), ('UNSPECIFIED') ) ;
#63 = ADVANCED_FACE ( 'NONE', ( #98, #26 ), #9, .T. ) ;
#64 = PRODUCT ( '222', '222', '', ( #158 ) ) ;
#65 = PERSON_AND_ORGANIZATION ( #62, #44 ) ;
#66 = LOCAL_TIME ( 10, 24, 42.00000000000000000, #124 ) ;
#67 = COORDINATED_UNIVERSAL_TIME_OFFSET ( 1, 0, .AHEAD. ) ;
#68 = COORDINATED_UNIVERSAL_TIME_OFFSET ( 1, 0, .AHEAD. ) ;
#69 = EDGE_LOOP ( 'NONE', ( #141 ) ) ;
#70 = PERSON_AND_ORGANIZATION ( #62, #44 ) ;
#71 = LOCAL_TIME ( 10, 24, 42.00000000000000000, #49 ) ;
#72 = DIRECTION ( 'NONE',  ( 1.000000000000000000, 0.0000000000000000000, 0.0000000000000000000 ) ) ;
#73 = FACE_OUTER_BOUND ( 'NONE', #69, .T. ) ;
#74 = CC_DESIGN_PERSON_AND_ORGANIZATION_ASSIGNMENT ( #97, #83, ( #175 ) ) ;
#75 = CARTESIAN_POINT ( 'NONE',  ( 1.326762908760390423E-13, 0.6499999999999953593, 38.00000000000000000 ) ) ;
#76 = ORIENTED_EDGE ( 'NONE', *, *, #106, .F. ) ;
#77 = DIRECTION ( 'NONE',  ( 0.0000000000000000000, 1.000000000000000000, 0.0000000000000000000 ) ) ;
#78 = CLOSED_SHELL ( 'NONE', ( #24, #63, #47, #87 ) ) ;
#79 = DESIGN_CONTEXT ( 'detailed design', #80, 'design' ) ;
#80 = APPLICATION_CONTEXT ( 'configuration controlled 3d designs of mechanical parts and assemblies' ) ;
#81 = MANIFOLD_SOLID_BREP ( 'Corps-Déplacer/Copier1[1]', #78 ) ;
#82 =( GEOMETRIC_REPRESENTATION_CONTEXT ( 3 ) GLOBAL_UNCERTAINTY_ASSIGNED_CONTEXT ( ( #184 ) ) GLOBAL_UNIT_ASSIGNED_CONTEXT ( ( #2, #109, #41 ) ) REPRESENTATION_CONTEXT ( 'NONE', 'WORKASPACE' ) );
#83 = PERSON_AND_ORGANIZATION_ROLE ( 'creator' ) ;
#84 = APPROVAL_DATE_TIME ( #95, #135 ) ;
#85 = ORIENTED_EDGE ( 'NONE', *, *, #106, .T. ) ;
#86 = DIRECTION ( 'NONE',  ( 4.275831445896958607E-31, 1.000000000000000000, 1.224646799147353207E-16 ) ) ;
#87 = ADVANCED_FACE ( 'NONE', ( #58 ), #133, .F. ) ;
#88 = APPLICATION_PROTOCOL_DEFINITION ( 'international standard', 'config_control_design', 1994, #131 ) ;
#89 = CARTESIAN_POINT ( 'NONE',  ( 1.326762908760390423E-13, -4.653657836759941941E-15, 38.00000000000000000 ) ) ;
#90 = FACE_OUTER_BOUND ( 'NONE', #22, .T. ) ;
#91 = AXIS2_PLACEMENT_3D ( 'NONE', #149, #32, #159 ) ;
#92 = EDGE_CURVE ( 'NONE', #21, #21, #27, .T. ) ;
#93 = PERSON_AND_ORGANIZATION ( #62, #44 ) ;
#94 = APPROVAL_PERSON_ORGANIZATION ( #127, #135, #52 ) ;
#95 = DATE_AND_TIME ( #4, #104 ) ;
#96 = CONICAL_SURFACE ( 'NONE', #202, 0.8499999999999954259, 1.047197551196592746 ) ;
#97 = PERSON_AND_ORGANIZATION ( #62, #44 ) ;
#98 = FACE_OUTER_BOUND ( 'NONE', #17, .T. ) ;
#99 = FACE_OUTER_BOUND ( 'NONE', #176, .T. ) ;
#100 = ORIENTED_EDGE ( 'NONE', *, *, #152, .T. ) ;
#101 = ORIENTED_EDGE ( 'NONE', *, *, #56, .F. ) ;
#102 = CYLINDRICAL_SURFACE ( 'NONE', #46, 0.8499999999999959810 ) ;
#103 = DIRECTION ( 'NONE',  ( -3.491481338843133355E-15, 1.224646799147353207E-16, -1.000000000000000000 ) ) ;
#104 = LOCAL_TIME ( 10, 24, 42.00000000000000000, #161 ) ;
#105 = DIRECTION ( 'NONE',  ( 4.531599869146461927E-31, 1.000000000000000000, 1.275531967630012148E-16 ) ) ;
#106 = EDGE_CURVE ( 'NONE', #177, #177, #150, .T. ) ;
#107 = AXIS2_PLACEMENT_3D ( 'NONE', #25, #118, #134 ) ;
#108 = SECURITY_CLASSIFICATION_LEVEL ( 'unclassified' ) ;
#109 =( NAMED_UNIT ( * ) PLANE_ANGLE_UNIT ( ) SI_UNIT ( $, .RADIAN. ) );
#110 = VERTEX_POINT ( 'NONE', #164 ) ;
#111 = PLANE ( 'NONE',  #156 ) ;
#112 = CC_DESIGN_PERSON_AND_ORGANIZATION_ASSIGNMENT ( #170, #153, ( #42 ) ) ;
#113 = EDGE_LOOP ( 'NONE', ( #100 ) ) ;
#114 = DIRECTION ( 'NONE',  ( 3.491481338843133355E-15, -1.224646799147353207E-16, 1.000000000000000000 ) ) ;
#115 = LOCAL_TIME ( 10, 24, 42.00000000000000000, #67 ) ;
#116 = DIRECTION ( 'NONE',  ( 4.275831445896958607E-31, 1.000000000000000000, 1.224646799147353207E-16 ) ) ;
#117 = ADVANCED_FACE ( 'NONE', ( #6 ), #96, .T. ) ;
#118 = DIRECTION ( 'NONE',  ( -3.491481338843133355E-15, 1.224646799147353207E-16, -1.000000000000000000 ) ) ;
#119 = CARTESIAN_POINT ( 'NONE',  ( 1.326762908760390423E-13, -4.653657836759941941E-15, 38.00000000000000000 ) ) ;
#120 = AXIS2_PLACEMENT_3D ( 'NONE', #167, #166, #105 ) ;
#121 = PERSON_AND_ORGANIZATION_ROLE ( 'design_supplier' ) ;
#122 = SHAPE_DEFINITION_REPRESENTATION ( #10, #144 ) ;
#123 = EDGE_LOOP ( 'NONE', ( #5 ) ) ;
#124 = COORDINATED_UNIVERSAL_TIME_OFFSET ( 1, 0, .AHEAD. ) ;
#125 = APPROVAL_PERSON_ORGANIZATION ( #157, #182, #51 ) ;
#126 = PLANE ( 'NONE',  #197 ) ;
#127 = PERSON_AND_ORGANIZATION ( #62, #44 ) ;
#128 = VERTEX_POINT ( 'NONE', #23 ) ;
#129 = DIRECTION ( 'NONE',  ( -3.491481338843133355E-15, 1.224646799147353207E-16, -1.000000000000000000 ) ) ;
#130 = CARTESIAN_POINT ( 'NONE',  ( 0.0000000000000000000, 0.0000000000000000000, 0.0000000000000000000 ) ) ;
#131 = APPLICATION_CONTEXT ( 'configuration controlled 3d designs of mechanical parts and assemblies' ) ;
#132 = CC_DESIGN_APPROVAL ( #182, ( #11 ) ) ;
#133 = PLANE ( 'NONE',  #107 ) ;
#134 = DIRECTION ( 'NONE',  ( 4.275831445896958607E-31, 1.000000000000000000, 1.224646799147353207E-16 ) ) ;
#135 = APPROVAL ( #40, 'UNSPECIFIED' ) ;
#136 = APPROVAL_ROLE ( '' ) ;
#137 = CIRCLE ( 'NONE', #91, 0.8499999999999999778 ) ;
#138 = DATE_TIME_ROLE ( 'classification_date' ) ;
#139 = CARTESIAN_POINT ( 'NONE',  ( 3.142333204958820020E-14, 6.373979076312851043E-33, 9.000000000000000000 ) ) ;
#140 = MANIFOLD_SOLID_BREP ( 'Corps-Déplacer/Copier1[2]', #195 ) ;
#141 = ORIENTED_EDGE ( 'NONE', *, *, #92, .F. ) ;
#142 = EDGE_LOOP ( 'NONE', ( #76 ) ) ;
#143 = CC_DESIGN_APPROVAL ( #155, ( #42 ) ) ;
#144 = ADVANCED_BREP_SHAPE_REPRESENTATION ( '222', ( #81, #140, #187 ), #82 ) ;
#145 = VERTEX_POINT ( 'NONE', #191 ) ;
#146 = APPLICATION_PROTOCOL_DEFINITION ( 'international standard', 'config_control_design', 1994, #80 ) ;
#147 = DIRECTION ( 'NONE',  ( -4.275831445896958607E-31, -1.000000000000000000, -1.224646799147353207E-16 ) ) ;
#148 = AXIS2_PLACEMENT_3D ( 'NONE', #181, #103, #77 ) ;
#149 = CARTESIAN_POINT ( 'NONE',  ( 1.319779946082704535E-13, -4.629164900776995227E-15, 37.79999999999999716 ) ) ;
#150 = CIRCLE ( 'NONE', #183, 0.6500000000000000222 ) ;
#151 = APPROVAL_STATUS ( 'not_yet_approved' ) ;
#152 = EDGE_CURVE ( 'NONE', #110, #110, #180, .T. ) ;
#153 = PERSON_AND_ORGANIZATION_ROLE ( 'classification_officer' ) ;
#154 = DATE_AND_TIME ( #45, #115 ) ;
#155 = APPROVAL ( #151, 'UNSPECIFIED' ) ;
#156 = AXIS2_PLACEMENT_3D ( 'NONE', #139, #162, #147 ) ;
#157 = PERSON_AND_ORGANIZATION ( #62, #44 ) ;
#158 = MECHANICAL_CONTEXT ( 'NONE', #131, 'mechanical' ) ;
#159 = DIRECTION ( 'NONE',  ( 0.0000000000000000000, 1.000000000000000000, 0.0000000000000000000 ) ) ;
#160 = FACE_OUTER_BOUND ( 'NONE', #34, .T. ) ;
#161 = COORDINATED_UNIVERSAL_TIME_OFFSET ( 1, 0, .AHEAD. ) ;
#162 = DIRECTION ( 'NONE',  ( 3.491481338843133355E-15, -1.224646799147353207E-16, 1.000000000000000000 ) ) ;
#163 = EDGE_CURVE ( 'NONE', #128, #128, #137, .T. ) ;
#164 = CARTESIAN_POINT ( 'NONE',  ( 1.713436537223902947E-15, 0.8499999999999953149, 0.4907477288111849467 ) ) ;
#165 = CONICAL_SURFACE ( 'NONE', #14, 0.6500000000000000222, 0.7853981633974512766 ) ;
#166 = DIRECTION ( 'NONE',  ( -3.491481338843133355E-15, 1.224646799147353207E-16, -1.000000000000000000 ) ) ;
#167 = CARTESIAN_POINT ( 'NONE',  ( 1.713436537223902552E-15, -6.009926352774508591E-17, 0.4907477288111848357 ) ) ;
#168 = CC_DESIGN_PERSON_AND_ORGANIZATION_ASSIGNMENT ( #65, #15, ( #11 ) ) ;
#169 = CALENDAR_DATE ( 2021, 6, 10 ) ;
#170 = PERSON_AND_ORGANIZATION ( #62, #44 ) ;
#171 = CIRCLE ( 'NONE', #39, 0.8499999999999964251 ) ;
#172 = DIRECTION ( 'NONE',  ( 0.0000000000000000000, 1.000000000000000000, 0.0000000000000000000 ) ) ;
#173 = CARTESIAN_POINT ( 'NONE',  ( 0.0000000000000000000, 0.0000000000000000000, 0.0000000000000000000 ) ) ;
#174 = ORIENTED_EDGE ( 'NONE', *, *, #92, .T. ) ;
#175 = PRODUCT_DEFINITION ( 'UNKNOWN', '', #11, #79 ) ;
#176 = EDGE_LOOP ( 'NONE', ( #35 ) ) ;
#177 = VERTEX_POINT ( 'NONE', #75 ) ;
#178 = DIRECTION ( 'NONE',  ( 0.0000000000000000000, 1.000000000000000000, 0.0000000000000000000 ) ) ;
#179 = DIRECTION ( 'NONE',  ( -4.531599869146461927E-31, -1.000000000000000000, -1.275531967630012148E-16 ) ) ;
#180 = CIRCLE ( 'NONE', #120, 0.8499999999999954259 ) ;
#181 = CARTESIAN_POINT ( 'NONE',  ( 3.142333204958820020E-14, -1.102182119232617714E-15, 9.000000000000000000 ) ) ;
#182 = APPROVAL ( #30, 'UNSPECIFIED' ) ;
#183 = AXIS2_PLACEMENT_3D ( 'NONE', #119, #43, #178 ) ;
#184 = UNCERTAINTY_MEASURE_WITH_UNIT (LENGTH_MEASURE( 1.000000000000000082E-05 ), #2, 'distance_accuracy_value', 'NONE');
#185 = DIRECTION ( 'NONE',  ( -3.491481338843133355E-15, 1.224646799147353207E-16, -1.000000000000000000 ) ) ;
#186 = CALENDAR_DATE ( 2021, 6, 10 ) ;
#187 = AXIS2_PLACEMENT_3D ( 'NONE', #173, #203, #72 ) ;
#188 = PERSON_AND_ORGANIZATION_ROLE ( 'design_owner' ) ;
#189 = CARTESIAN_POINT ( 'NONE',  ( 3.142333204958820020E-14, 6.373979076312851043E-33, 9.000000000000000000 ) ) ;
#190 = PERSON_AND_ORGANIZATION ( #62, #44 ) ;
#191 = CARTESIAN_POINT ( 'NONE',  ( 3.142333204958820020E-14, 0.8499999999999953149, 9.000000000000000000 ) ) ;
#192 = DIRECTION ( 'NONE',  ( 0.0000000000000000000, 1.000000000000000000, 0.0000000000000000000 ) ) ;
#193 = DIRECTION ( 'NONE',  ( -3.491481338843133355E-15, 1.224646799147353207E-16, -1.000000000000000000 ) ) ;
#194 = ADVANCED_FACE ( 'NONE', ( #99, #90 ), #102, .T. ) ;
#195 = CLOSED_SHELL ( 'NONE', ( #117, #194, #7 ) ) ;
#196 = CC_DESIGN_DATE_AND_TIME_ASSIGNMENT ( #28, #138, ( #42 ) ) ;
#197 = AXIS2_PLACEMENT_3D ( 'NONE', #189, #53, #37 ) ;
#198 = CALENDAR_DATE ( 2021, 6, 10 ) ;
#199 = DATE_AND_TIME ( #198, #8 ) ;
#200 = CARTESIAN_POINT ( 'NONE',  ( 3.142333204958820020E-14, -1.102182119232617714E-15, 9.000000000000000000 ) ) ;
#201 = ORIENTED_EDGE ( 'NONE', *, *, #163, .T. ) ;
#202 = AXIS2_PLACEMENT_3D ( 'NONE', #59, #114, #179 ) ;
#203 = DIRECTION ( 'NONE',  ( 0.0000000000000000000, 0.0000000000000000000, 1.000000000000000000 ) ) ;
ENDSEC;
END-ISO-10303-21;
