ISO-10303-21;
HEADER;
FILE_DESCRIPTION (( 'STEP AP203' ),
    '1' );
FILE_NAME ('221.step',
    '2021-10-06T08:24:41',
    ( '' ),
    ( '' ),
    'SwSTEP 2.0',
    'SolidWorks 2019',
    '' );
FILE_SCHEMA (( 'CONFIG_CONTROL_DESIGN' ));
ENDSEC;

DATA;
#1 = COORDINATED_UNIVERSAL_TIME_OFFSET ( 1, 0, .AHEAD. ) ;
#2 = PRODUCT_RELATED_PRODUCT_CATEGORY ( 'detail', '', ( #89 ) ) ;
#3 = EDGE_LOOP ( 'NONE', ( #96 ) ) ;
#4 = EDGE_LOOP ( 'NONE', ( #32 ) ) ;
#5 = CARTESIAN_POINT ( 'NONE',  ( 0.0000000000000000000, 0.0000000000000000000, 0.0000000000000000000 ) ) ;
#6 = EDGE_LOOP ( 'NONE', ( #19 ) ) ;
#7 = DIRECTION ( 'NONE',  ( 0.0000000000000000000, 1.000000000000000000, 0.0000000000000000000 ) ) ;
#8 = DIRECTION ( 'NONE',  ( -4.814824860968116783E-31, -1.000000000000000000, -1.355252715606888185E-16 ) ) ;
#9 = LOCAL_TIME ( 10, 24, 41.00000000000000000, #146 ) ;
#10 = DIRECTION ( 'NONE',  ( -3.491481338843133355E-15, 1.224646799147353207E-16, -1.000000000000000000 ) ) ;
#11 = CALENDAR_DATE ( 2021, 6, 10 ) ;
#12 = APPROVAL_DATE_TIME ( #180, #90 ) ;
#13 = DATE_TIME_ROLE ( 'creation_date' ) ;
#14 = EDGE_CURVE ( 'NONE', #25, #25, #36, .T. ) ;
#15 = APPLICATION_PROTOCOL_DEFINITION ( 'international standard', 'config_control_design', 1994, #23 ) ;
#16 = EDGE_LOOP ( 'NONE', ( #93 ) ) ;
#17 = ORIENTED_EDGE ( 'NONE', *, *, #14, .T. ) ;
#18 = AXIS2_PLACEMENT_3D ( 'NONE', #39, #35, #83 ) ;
#19 = ORIENTED_EDGE ( 'NONE', *, *, #167, .F. ) ;
#20 = FACE_OUTER_BOUND ( 'NONE', #4, .T. ) ;
#21 = CARTESIAN_POINT ( 'NONE',  ( 1.326762908760390423E-13, -4.653657836759941941E-15, 38.00000000000000000 ) ) ;
#22 = LOCAL_TIME ( 10, 24, 41.00000000000000000, #56 ) ;
#23 = APPLICATION_CONTEXT ( 'configuration controlled 3d designs of mechanical parts and assemblies' ) ;
#24 = CARTESIAN_POINT ( 'NONE',  ( 1.612646152681319469E-15, -5.656401273199535758E-17, 0.4618802153517032050 ) ) ;
#25 = VERTEX_POINT ( 'NONE', #80 ) ;
#26 = CLOSED_SHELL ( 'NONE', ( #49, #195, #154 ) ) ;
#27 = PERSON_AND_ORGANIZATION ( #120, #186 ) ;
#28 =( LENGTH_UNIT ( ) NAMED_UNIT ( * ) SI_UNIT ( .MILLI., .METRE. ) );
#29 = CIRCLE ( 'NONE', #148, 0.8000000000000000444 ) ;
#30 = DIRECTION ( 'NONE',  ( 0.0000000000000000000, 0.0000000000000000000, 1.000000000000000000 ) ) ;
#31 = CALENDAR_DATE ( 2021, 6, 10 ) ;
#32 = ORIENTED_EDGE ( 'NONE', *, *, #86, .F. ) ;
#33 = ORIENTED_EDGE ( 'NONE', *, *, #48, .T. ) ;
#34 = DIRECTION ( 'NONE',  ( -3.491481338843133355E-15, 1.224646799147353207E-16, -1.000000000000000000 ) ) ;
#35 = DIRECTION ( 'NONE',  ( -3.491481338843133355E-15, 1.224646799147353207E-16, -1.000000000000000000 ) ) ;
#36 = CIRCLE ( 'NONE', #118, 0.7999999999999954925 ) ;
#37 = DIRECTION ( 'NONE',  ( -3.491481338843133355E-15, 1.224646799147353207E-16, -1.000000000000000000 ) ) ;
#38 = DIRECTION ( 'NONE',  ( 3.491481338843133355E-15, -1.224646799147353207E-16, 1.000000000000000000 ) ) ;
#39 = CARTESIAN_POINT ( 'NONE',  ( 0.0000000000000000000, 0.0000000000000000000, 0.0000000000000000000 ) ) ;
#40 = PERSON_AND_ORGANIZATION_ROLE ( 'design_owner' ) ;
#41 = APPROVAL_PERSON_ORGANIZATION ( #116, #90, #132 ) ;
#42 = MECHANICAL_CONTEXT ( 'NONE', #23, 'mechanical' ) ;
#43 = ADVANCED_FACE ( 'NONE', ( #85 ), #53, .F. ) ;
#44 = PERSON_AND_ORGANIZATION ( #120, #186 ) ;
#45 = PERSON_AND_ORGANIZATION ( #120, #186 ) ;
#46 = PERSON_AND_ORGANIZATION_ROLE ( 'classification_officer' ) ;
#47 = SHAPE_DEFINITION_REPRESENTATION ( #150, #147 ) ;
#48 = EDGE_CURVE ( 'NONE', #72, #72, #92, .T. ) ;
#49 = ADVANCED_FACE ( 'NONE', ( #100 ), #130, .T. ) ;
#50 = AXIS2_PLACEMENT_3D ( 'NONE', #112, #37, #158 ) ;
#51 = DIRECTION ( 'NONE',  ( 0.0000000000000000000, 1.000000000000000000, 0.0000000000000000000 ) ) ;
#52 = CIRCLE ( 'NONE', #192, 0.7999999999999964917 ) ;
#53 = PLANE ( 'NONE',  #181 ) ;
#54 = DIRECTION ( 'NONE',  ( -3.491481338843133355E-15, 1.224646799147353207E-16, -1.000000000000000000 ) ) ;
#55 = PERSON_AND_ORGANIZATION_ROLE ( 'creator' ) ;
#56 = COORDINATED_UNIVERSAL_TIME_OFFSET ( 1, 0, .AHEAD. ) ;
#57 = AXIS2_PLACEMENT_3D ( 'NONE', #82, #10, #101 ) ;
#58 = PERSON_AND_ORGANIZATION ( #120, #186 ) ;
#59 = DATE_AND_TIME ( #177, #22 ) ;
#60 = APPROVAL_STATUS ( 'not_yet_approved' ) ;
#61 = PRODUCT_DEFINITION_FORMATION_WITH_SPECIFIED_SOURCE ( 'ANY', '', #89, .NOT_KNOWN. ) ;
#62 = AXIS2_PLACEMENT_3D ( 'NONE', #21, #34, #51 ) ;
#63 = CALENDAR_DATE ( 2021, 6, 10 ) ;
#64 = ORIENTED_EDGE ( 'NONE', *, *, #98, .T. ) ;
#65 = ADVANCED_FACE ( 'NONE', ( #97, #196 ), #142, .T. ) ;
#66 = AXIS2_PLACEMENT_3D ( 'NONE', #67, #111, #8 ) ;
#67 = CARTESIAN_POINT ( 'NONE',  ( 1.612646152681319469E-15, -5.656401273199535758E-17, 0.4618802153517032050 ) ) ;
#68 = CARTESIAN_POINT ( 'NONE',  ( 3.142333204958820020E-14, 5.999039130647388009E-33, 9.000000000000000000 ) ) ;
#69 = CARTESIAN_POINT ( 'NONE',  ( 3.142333204958820020E-14, 0.7999999999999953815, 9.000000000000000000 ) ) ;
#70 = AXIS2_PLACEMENT_3D ( 'NONE', #73, #30, #74 ) ;
#71 = FACE_OUTER_BOUND ( 'NONE', #16, .T. ) ;
#72 = VERTEX_POINT ( 'NONE', #69 ) ;
#73 = CARTESIAN_POINT ( 'NONE',  ( 0.0000000000000000000, 0.0000000000000000000, 0.0000000000000000000 ) ) ;
#74 = DIRECTION ( 'NONE',  ( 1.000000000000000000, 0.0000000000000000000, 0.0000000000000000000 ) ) ;
#75 = APPROVAL_STATUS ( 'not_yet_approved' ) ;
#76 = COORDINATED_UNIVERSAL_TIME_OFFSET ( 1, 0, .AHEAD. ) ;
#77 = CIRCLE ( 'NONE', #57, 0.6000000000000000888 ) ;
#78 = PRODUCT_DEFINITION ( 'UNKNOWN', '', #61, #179 ) ;
#79 = EDGE_LOOP ( 'NONE', ( #17 ) ) ;
#80 = CARTESIAN_POINT ( 'NONE',  ( 1.612646152681319863E-15, 0.7999999999999953815, 0.4618802153517033160 ) ) ;
#81 = CC_DESIGN_APPROVAL ( #106, ( #78 ) ) ;
#82 = CARTESIAN_POINT ( 'NONE',  ( 1.326762908760390423E-13, -4.653657836759941941E-15, 38.00000000000000000 ) ) ;
#83 = DIRECTION ( 'NONE',  ( 4.275831445896958607E-31, 1.000000000000000000, 1.224646799147353207E-16 ) ) ;
#84 = CARTESIAN_POINT ( 'NONE',  ( 1.319779946082704535E-13, -4.629164900776995227E-15, 37.79999999999999716 ) ) ;
#85 = FACE_OUTER_BOUND ( 'NONE', #119, .T. ) ;
#86 = EDGE_CURVE ( 'NONE', #129, #129, #77, .T. ) ;
#87 = CALENDAR_DATE ( 2021, 6, 10 ) ;
#88 = PERSON_AND_ORGANIZATION ( #120, #186 ) ;
#89 = PRODUCT ( '221', '221', '', ( #42 ) ) ;
#90 = APPROVAL ( #60, 'UNSPECIFIED' ) ;
#91 = DATE_AND_TIME ( #31, #203 ) ;
#92 = CIRCLE ( 'NONE', #197, 0.7999999999999964917 ) ;
#93 = ORIENTED_EDGE ( 'NONE', *, *, #98, .F. ) ;
#94 = APPROVAL_DATE_TIME ( #166, #169 ) ;
#95 = APPROVAL_ROLE ( '' ) ;
#96 = ORIENTED_EDGE ( 'NONE', *, *, #48, .F. ) ;
#97 = FACE_OUTER_BOUND ( 'NONE', #6, .T. ) ;
#98 = EDGE_CURVE ( 'NONE', #170, #170, #29, .T. ) ;
#99 = LOCAL_TIME ( 10, 24, 41.00000000000000000, #1 ) ;
#100 = FACE_OUTER_BOUND ( 'NONE', #79, .T. ) ;
#101 = DIRECTION ( 'NONE',  ( 0.0000000000000000000, 1.000000000000000000, 0.0000000000000000000 ) ) ;
#102 = DIRECTION ( 'NONE',  ( 0.0000000000000000000, 1.000000000000000000, 0.0000000000000000000 ) ) ;
#103 = PERSON_AND_ORGANIZATION ( #120, #186 ) ;
#104 = APPROVAL_DATE_TIME ( #59, #106 ) ;
#105 = CC_DESIGN_DATE_AND_TIME_ASSIGNMENT ( #91, #151, ( #198 ) ) ;
#106 = APPROVAL ( #75, 'UNSPECIFIED' ) ;
#107 = PERSON_AND_ORGANIZATION_ROLE ( 'design_supplier' ) ;
#108 = APPLICATION_CONTEXT ( 'configuration controlled 3d designs of mechanical parts and assemblies' ) ;
#109 = CARTESIAN_POINT ( 'NONE',  ( 1.326762908760390423E-13, 0.5999999999999954259, 38.00000000000000000 ) ) ;
#110 = EDGE_LOOP ( 'NONE', ( #33 ) ) ;
#111 = DIRECTION ( 'NONE',  ( 3.491481338843133355E-15, -1.224646799147353207E-16, 1.000000000000000000 ) ) ;
#112 = CARTESIAN_POINT ( 'NONE',  ( 1.326762908760390423E-13, 4.499279347985503717E-33, 38.00000000000000000 ) ) ;
#113 = DIRECTION ( 'NONE',  ( -3.491481338843133355E-15, 1.224646799147353207E-16, -1.000000000000000000 ) ) ;
#114 = APPROVAL_STATUS ( 'not_yet_approved' ) ;
#115 = CARTESIAN_POINT ( 'NONE',  ( 3.142333204958820020E-14, 0.7999999999999953815, 9.000000000000000000 ) ) ;
#116 = PERSON_AND_ORGANIZATION ( #120, #186 ) ;
#117 = SECURITY_CLASSIFICATION_LEVEL ( 'unclassified' ) ;
#118 = AXIS2_PLACEMENT_3D ( 'NONE', #24, #127, #190 ) ;
#119 = EDGE_LOOP ( 'NONE', ( #188 ) ) ;
#120 = PERSON ( 'UNSPECIFIED', 'UNSPECIFIED', 'UNSPECIFIED', ('UNSPECIFIED'), ('UNSPECIFIED'), ('UNSPECIFIED') ) ;
#121 = CLOSED_SHELL ( 'NONE', ( #43, #65, #123, #175 ) ) ;
#122 = EDGE_LOOP ( 'NONE', ( #165 ) ) ;
#123 = ADVANCED_FACE ( 'NONE', ( #71, #139 ), #168, .T. ) ;
#124 = EDGE_LOOP ( 'NONE', ( #163 ) ) ;
#125 = CARTESIAN_POINT ( 'NONE',  ( 1.319779946082704535E-13, 0.7999999999999953815, 37.79999999999999716 ) ) ;
#126 = CARTESIAN_POINT ( 'NONE',  ( 3.142333204958820020E-14, 5.999039130647388009E-33, 9.000000000000000000 ) ) ;
#127 = DIRECTION ( 'NONE',  ( -3.491481338843133355E-15, 1.224646799147353207E-16, -1.000000000000000000 ) ) ;
#128 = DIRECTION ( 'NONE',  ( 3.491481338843133355E-15, -1.224646799147353207E-16, 1.000000000000000000 ) ) ;
#129 = VERTEX_POINT ( 'NONE', #109 ) ;
#130 = CONICAL_SURFACE ( 'NONE', #66, 0.7999999999999954925, 1.047197551196592746 ) ;
#131 = APPROVAL_ROLE ( '' ) ;
#132 = APPROVAL_ROLE ( '' ) ;
#133 = PERSON_AND_ORGANIZATION ( #120, #186 ) ;
#134 = CC_DESIGN_APPROVAL ( #169, ( #198 ) ) ;
#135 = CC_DESIGN_PERSON_AND_ORGANIZATION_ASSIGNMENT ( #103, #46, ( #198 ) ) ;
#136 = CC_DESIGN_PERSON_AND_ORGANIZATION_ASSIGNMENT ( #27, #40, ( #89 ) ) ;
#137 = APPROVAL_PERSON_ORGANIZATION ( #133, #169, #95 ) ;
#138 = CC_DESIGN_PERSON_AND_ORGANIZATION_ASSIGNMENT ( #44, #55, ( #78 ) ) ;
#139 = FACE_BOUND ( 'NONE', #124, .T. ) ;
#140 = AXIS2_PLACEMENT_3D ( 'NONE', #5, #54, #157 ) ;
#141 = PLANE ( 'NONE',  #164 ) ;
#142 = CYLINDRICAL_SURFACE ( 'NONE', #140, 0.7999999999999981570 ) ;
#143 = DIRECTION ( 'NONE',  ( -4.275831445896958607E-31, -1.000000000000000000, -1.224646799147353207E-16 ) ) ;
#144 = APPROVAL_PERSON_ORGANIZATION ( #88, #106, #131 ) ;
#145 = CARTESIAN_POINT ( 'NONE',  ( 3.142333204958820020E-14, -1.102182119232617714E-15, 9.000000000000000000 ) ) ;
#146 = COORDINATED_UNIVERSAL_TIME_OFFSET ( 1, 0, .AHEAD. ) ;
#147 = ADVANCED_BREP_SHAPE_REPRESENTATION ( '221', ( #201, #202, #70 ), #160 ) ;
#148 = AXIS2_PLACEMENT_3D ( 'NONE', #84, #189, #7 ) ;
#149 =( NAMED_UNIT ( * ) SI_UNIT ( $, .STERADIAN. ) SOLID_ANGLE_UNIT ( ) );
#150 = PRODUCT_DEFINITION_SHAPE ( 'NONE', 'NONE',  #78 ) ;
#151 = DATE_TIME_ROLE ( 'classification_date' ) ;
#152 = EDGE_LOOP ( 'NONE', ( #64 ) ) ;
#153 = CC_DESIGN_APPROVAL ( #90, ( #61 ) ) ;
#154 = ADVANCED_FACE ( 'NONE', ( #155 ), #141, .T. ) ;
#155 = FACE_OUTER_BOUND ( 'NONE', #3, .T. ) ;
#156 = FACE_OUTER_BOUND ( 'NONE', #122, .T. ) ;
#157 = DIRECTION ( 'NONE',  ( 4.275831445896958607E-31, 1.000000000000000000, 1.224646799147353207E-16 ) ) ;
#158 = DIRECTION ( 'NONE',  ( 4.275831445896958607E-31, 1.000000000000000000, 1.224646799147353207E-16 ) ) ;
#159 = CYLINDRICAL_SURFACE ( 'NONE', #18, 0.7999999999999960476 ) ;
#160 =( GEOMETRIC_REPRESENTATION_CONTEXT ( 3 ) GLOBAL_UNCERTAINTY_ASSIGNED_CONTEXT ( ( #185 ) ) GLOBAL_UNIT_ASSIGNED_CONTEXT ( ( #28, #200, #149 ) ) REPRESENTATION_CONTEXT ( 'NONE', 'WORKASPACE' ) );
#161 = APPLICATION_PROTOCOL_DEFINITION ( 'international standard', 'config_control_design', 1994, #108 ) ;
#162 = VERTEX_POINT ( 'NONE', #115 ) ;
#163 = ORIENTED_EDGE ( 'NONE', *, *, #86, .T. ) ;
#164 = AXIS2_PLACEMENT_3D ( 'NONE', #68, #128, #191 ) ;
#165 = ORIENTED_EDGE ( 'NONE', *, *, #14, .F. ) ;
#166 = DATE_AND_TIME ( #63, #99 ) ;
#167 = EDGE_CURVE ( 'NONE', #162, #162, #52, .T. ) ;
#168 = CONICAL_SURFACE ( 'NONE', #62, 0.6000000000000000888, 0.7853981633974512766 ) ;
#169 = APPROVAL ( #114, 'UNSPECIFIED' ) ;
#170 = VERTEX_POINT ( 'NONE', #125 ) ;
#171 = CC_DESIGN_PERSON_AND_ORGANIZATION_ASSIGNMENT ( #58, #107, ( #61 ) ) ;
#172 = PLANE ( 'NONE',  #50 ) ;
#173 = DIRECTION ( 'NONE',  ( -3.491481338843133355E-15, 1.224646799147353207E-16, -1.000000000000000000 ) ) ;
#174 = FACE_OUTER_BOUND ( 'NONE', #110, .T. ) ;
#175 = ADVANCED_FACE ( 'NONE', ( #20 ), #172, .F. ) ;
#176 = DIRECTION ( 'NONE',  ( 0.0000000000000000000, 1.000000000000000000, 0.0000000000000000000 ) ) ;
#177 = CALENDAR_DATE ( 2021, 6, 10 ) ;
#178 = DATE_AND_TIME ( #87, #193 ) ;
#179 = DESIGN_CONTEXT ( 'detailed design', #108, 'design' ) ;
#180 = DATE_AND_TIME ( #11, #9 ) ;
#181 = AXIS2_PLACEMENT_3D ( 'NONE', #126, #38, #143 ) ;
#182 = CC_DESIGN_SECURITY_CLASSIFICATION ( #198, ( #61 ) ) ;
#183 = COORDINATED_UNIVERSAL_TIME_OFFSET ( 1, 0, .AHEAD. ) ;
#184 = CC_DESIGN_PERSON_AND_ORGANIZATION_ASSIGNMENT ( #45, #199, ( #61 ) ) ;
#185 = UNCERTAINTY_MEASURE_WITH_UNIT (LENGTH_MEASURE( 1.000000000000000082E-05 ), #28, 'distance_accuracy_value', 'NONE');
#186 = ORGANIZATION ( 'UNSPECIFIED', 'UNSPECIFIED', '' ) ;
#187 = CC_DESIGN_DATE_AND_TIME_ASSIGNMENT ( #178, #13, ( #78 ) ) ;
#188 = ORIENTED_EDGE ( 'NONE', *, *, #167, .T. ) ;
#189 = DIRECTION ( 'NONE',  ( -3.491481338843133355E-15, 1.224646799147353207E-16, -1.000000000000000000 ) ) ;
#190 = DIRECTION ( 'NONE',  ( 4.814824860968116783E-31, 1.000000000000000000, 1.355252715606888185E-16 ) ) ;
#191 = DIRECTION ( 'NONE',  ( -4.275831445896958607E-31, -1.000000000000000000, -1.224646799147353207E-16 ) ) ;
#192 = AXIS2_PLACEMENT_3D ( 'NONE', #194, #173, #176 ) ;
#193 = LOCAL_TIME ( 10, 24, 41.00000000000000000, #183 ) ;
#194 = CARTESIAN_POINT ( 'NONE',  ( 3.142333204958820020E-14, -1.102182119232617714E-15, 9.000000000000000000 ) ) ;
#195 = ADVANCED_FACE ( 'NONE', ( #156, #174 ), #159, .T. ) ;
#196 = FACE_OUTER_BOUND ( 'NONE', #152, .T. ) ;
#197 = AXIS2_PLACEMENT_3D ( 'NONE', #145, #113, #102 ) ;
#198 = SECURITY_CLASSIFICATION ( '', '', #117 ) ;
#199 = PERSON_AND_ORGANIZATION_ROLE ( 'creator' ) ;
#200 =( NAMED_UNIT ( * ) PLANE_ANGLE_UNIT ( ) SI_UNIT ( $, .RADIAN. ) );
#201 = MANIFOLD_SOLID_BREP ( 'Corps-Déplacer/Copier1[1]', #121 ) ;
#202 = MANIFOLD_SOLID_BREP ( 'Corps-Déplacer/Copier1[2]', #26 ) ;
#203 = LOCAL_TIME ( 10, 24, 41.00000000000000000, #76 ) ;
ENDSEC;
END-ISO-10303-21;
