ISO-10303-21;
HEADER;
FILE_DESCRIPTION (( 'STEP AP203' ),
    '1' );
FILE_NAME ('22049.step',
    '2021-12-06T12:58:30',
    ( '' ),
    ( '' ),
    'SwSTEP 2.0',
    'SolidWorks 2019',
    '' );
FILE_SCHEMA (( 'CONFIG_CONTROL_DESIGN' ));
ENDSEC;

DATA;
#1 = APPROVAL_ROLE ( '' ) ;
#2 = CC_DESIGN_PERSON_AND_ORGANIZATION_ASSIGNMENT ( #92, #128, ( #56 ) ) ;
#3 = DATE_TIME_ROLE ( 'creation_date' ) ;
#4 = CC_DESIGN_APPROVAL ( #124, ( #64 ) ) ;
#5 = AXIS2_PLACEMENT_3D ( 'NONE', #75, #89, #51 ) ;
#6 = DIRECTION ( 'NONE',  ( 6.841330313435128165E-30, 1.000000000000000000, 1.959434878635763159E-15 ) ) ;
#7 = DIRECTION ( 'NONE',  ( 6.841330313435128165E-30, 1.000000000000000000, 1.959434878635763159E-15 ) ) ;
#8 = AXIS2_PLACEMENT_3D ( 'NONE', #137, #78, #6 ) ;
#9 = EDGE_CURVE ( 'NONE', #80, #80, #121, .T. ) ;
#10 = MANIFOLD_SOLID_BREP ( 'Corps-Déplacer/Copier1', #29 ) ;
#11 = CARTESIAN_POINT ( 'NONE',  ( 8.728703347107839305E-16, 20.00000000000000000, 0.2500000000000002220 ) ) ;
#12 = DIRECTION ( 'NONE',  ( -3.491481338843133355E-15, 1.959434878635763159E-15, -1.000000000000000000 ) ) ;
#13 = DIRECTION ( 'NONE',  ( 6.841330313435128165E-30, 1.000000000000000000, 1.959434878635763159E-15 ) ) ;
#14 = DIRECTION ( 'NONE',  ( 6.841330313435128165E-30, 1.000000000000000000, 1.959434878635763159E-15 ) ) ;
#15 = EDGE_CURVE ( 'NONE', #39, #39, #120, .T. ) ;
#16 = APPROVAL_DATE_TIME ( #156, #19 ) ;
#17 = CALENDAR_DATE ( 2021, 6, 12 ) ;
#18 = COORDINATED_UNIVERSAL_TIME_OFFSET ( 1, 0, .AHEAD. ) ;
#19 = APPROVAL ( #117, 'UNSPECIFIED' ) ;
#20 = CARTESIAN_POINT ( 'NONE',  ( 8.728703347106471617E-16, -4.898587196588643689E-16, 0.2499999999999610312 ) ) ;
#21 = PLANE ( 'NONE',  #5 ) ;
#22 = EDGE_LOOP ( 'NONE', ( #24 ) ) ;
#23 = CARTESIAN_POINT ( 'NONE',  ( 0.0000000000000000000, 0.0000000000000000000, 0.0000000000000000000 ) ) ;
#24 = ORIENTED_EDGE ( 'NONE', *, *, #9, .T. ) ;
#25 = PERSON_AND_ORGANIZATION ( #90, #146 ) ;
#26 = APPROVAL_ROLE ( '' ) ;
#27 = DATE_AND_TIME ( #93, #32 ) ;
#28 = PERSON_AND_ORGANIZATION_ROLE ( 'classification_officer' ) ;
#29 = CLOSED_SHELL ( 'NONE', ( #144, #37, #70, #166 ) ) ;
#30 = AXIS2_PLACEMENT_3D ( 'NONE', #23, #48, #135 ) ;
#31 = SHAPE_DEFINITION_REPRESENTATION ( #169, #33 ) ;
#32 = LOCAL_TIME ( 13, 58, 30.00000000000000000, #116 ) ;
#33 = ADVANCED_BREP_SHAPE_REPRESENTATION ( '22049', ( #10, #30 ), #168 ) ;
#34 = AXIS2_PLACEMENT_3D ( 'NONE', #101, #125, #14 ) ;
#35 = EDGE_LOOP ( 'NONE', ( #158 ) ) ;
#36 = EDGE_LOOP ( 'NONE', ( #114 ) ) ;
#37 = ADVANCED_FACE ( 'NONE', ( #162, #134 ), #73, .T. ) ;
#38 = COORDINATED_UNIVERSAL_TIME_OFFSET ( 1, 0, .AHEAD. ) ;
#39 = VERTEX_POINT ( 'NONE', #61 ) ;
#40 = EDGE_LOOP ( 'NONE', ( #97 ) ) ;
#41 = DESIGN_CONTEXT ( 'detailed design', #148, 'design' ) ;
#42 = CALENDAR_DATE ( 2021, 6, 12 ) ;
#43 = PERSON_AND_ORGANIZATION ( #90, #146 ) ;
#44 = CIRCLE ( 'NONE', #67, 5.000000000000001776 ) ;
#45 = ORIENTED_EDGE ( 'NONE', *, *, #111, .T. ) ;
#46 = CC_DESIGN_PERSON_AND_ORGANIZATION_ASSIGNMENT ( #43, #28, ( #64 ) ) ;
#47 = FACE_BOUND ( 'NONE', #160, .T. ) ;
#48 = DIRECTION ( 'NONE',  ( 0.0000000000000000000, 0.0000000000000000000, 1.000000000000000000 ) ) ;
#49 = EDGE_LOOP ( 'NONE', ( #45 ) ) ;
#50 = FACE_BOUND ( 'NONE', #99, .T. ) ;
#51 = DIRECTION ( 'NONE',  ( -6.841330313435126764E-30, -1.000000000000000000, -1.959434878635763159E-15 ) ) ;
#52 = APPROVAL_PERSON_ORGANIZATION ( #133, #19, #1 ) ;
#53 = VERTEX_POINT ( 'NONE', #151 ) ;
#54 = LOCAL_TIME ( 13, 58, 30.00000000000000000, #38 ) ;
#55 = PERSON_AND_ORGANIZATION_ROLE ( 'design_supplier' ) ;
#56 = PRODUCT ( '22049', '22049', '', ( #62 ) ) ;
#57 = CALENDAR_DATE ( 2021, 6, 12 ) ;
#58 = AXIS2_PLACEMENT_3D ( 'NONE', #20, #87, #91 ) ;
#59 = PRODUCT_RELATED_PRODUCT_CATEGORY ( 'detail', '', ( #56 ) ) ;
#60 = CC_DESIGN_SECURITY_CLASSIFICATION ( #64, ( #76 ) ) ;
#61 = CARTESIAN_POINT ( 'NONE',  ( 0.0000000000000000000, 5.000000000000000000, 0.0000000000000000000 ) ) ;
#62 = MECHANICAL_CONTEXT ( 'NONE', #72, 'mechanical' ) ;
#63 = DIRECTION ( 'NONE',  ( -3.491481338843133355E-15, 1.959434878635763159E-15, -1.000000000000000000 ) ) ;
#64 = SECURITY_CLASSIFICATION ( '', '', #155 ) ;
#65 = DATE_AND_TIME ( #42, #54 ) ;
#66 = PERSON_AND_ORGANIZATION_ROLE ( 'creator' ) ;
#67 = AXIS2_PLACEMENT_3D ( 'NONE', #102, #63, #100 ) ;
#68 = COORDINATED_UNIVERSAL_TIME_OFFSET ( 1, 0, .AHEAD. ) ;
#69 = DATE_AND_TIME ( #17, #71 ) ;
#70 = ADVANCED_FACE ( 'NONE', ( #47, #136 ), #21, .T. ) ;
#71 = LOCAL_TIME ( 13, 58, 30.00000000000000000, #106 ) ;
#72 = APPLICATION_CONTEXT ( 'configuration controlled 3d designs of mechanical parts and assemblies' ) ;
#73 = CYLINDRICAL_SURFACE ( 'NONE', #8, 20.00000000000000000 ) ;
#74 = DIRECTION ( 'NONE',  ( -3.491481338843133355E-15, 1.959434878635763159E-15, -1.000000000000000000 ) ) ;
#75 = CARTESIAN_POINT ( 'NONE',  ( 8.728703347107329503E-16, 5.000000000000000888, 0.2499999999999855393 ) ) ;
#76 = PRODUCT_DEFINITION_FORMATION_WITH_SPECIFIED_SOURCE ( 'ANY', '', #56, .NOT_KNOWN. ) ;
#77 = DIRECTION ( 'NONE',  ( 6.841330313435126764E-30, 1.000000000000000000, 1.959434878635763159E-15 ) ) ;
#78 = DIRECTION ( 'NONE',  ( -3.491481338843133355E-15, 1.959434878635763159E-15, -1.000000000000000000 ) ) ;
#79 = APPLICATION_PROTOCOL_DEFINITION ( 'international standard', 'config_control_design', 1994, #72 ) ;
#80 = VERTEX_POINT ( 'NONE', #11 ) ;
#81 = LOCAL_TIME ( 13, 58, 30.00000000000000000, #68 ) ;
#82 = CC_DESIGN_PERSON_AND_ORGANIZATION_ASSIGNMENT ( #129, #167, ( #76 ) ) ;
#83 = DATE_AND_TIME ( #143, #142 ) ;
#84 = PRODUCT_DEFINITION ( 'UNKNOWN', '', #76, #41 ) ;
#85 = AXIS2_PLACEMENT_3D ( 'NONE', #159, #12, #7 ) ;
#86 = CIRCLE ( 'NONE', #34, 20.00000000000000000 ) ;
#87 = DIRECTION ( 'NONE',  ( -3.491481338843133355E-15, 1.959434878635763159E-15, -1.000000000000000000 ) ) ;
#88 = CARTESIAN_POINT ( 'NONE',  ( 8.728703347107841277E-16, 5.000000000000000888, 0.2500000000000002220 ) ) ;
#89 = DIRECTION ( 'NONE',  ( 3.491481338843133355E-15, -1.959434878635763159E-15, 1.000000000000000000 ) ) ;
#90 = PERSON ( 'UNSPECIFIED', 'UNSPECIFIED', 'UNSPECIFIED', ('UNSPECIFIED'), ('UNSPECIFIED'), ('UNSPECIFIED') ) ;
#91 = DIRECTION ( 'NONE',  ( 6.837051302574687278E-30, 1.000000000000000000, 1.959695426767549264E-15 ) ) ;
#92 = PERSON_AND_ORGANIZATION ( #90, #146 ) ;
#93 = CALENDAR_DATE ( 2021, 6, 12 ) ;
#94 = APPROVAL_STATUS ( 'not_yet_approved' ) ;
#95 = PERSON_AND_ORGANIZATION ( #90, #146 ) ;
#96 = CC_DESIGN_PERSON_AND_ORGANIZATION_ASSIGNMENT ( #108, #55, ( #76 ) ) ;
#97 = ORIENTED_EDGE ( 'NONE', *, *, #15, .T. ) ;
#98 = CARTESIAN_POINT ( 'NONE',  ( -3.420665156717563802E-29, 1.919692521807174095E-29, -9.797174393178816585E-15 ) ) ;
#99 = EDGE_LOOP ( 'NONE', ( #127 ) ) ;
#100 = DIRECTION ( 'NONE',  ( 6.856310602018556834E-30, 1.000000000000000000, 1.962405932198762237E-15 ) ) ;
#101 = CARTESIAN_POINT ( 'NONE',  ( -1.368266062687025521E-28, 7.678770087228696379E-29, -3.918869757271526634E-14 ) ) ;
#102 = CARTESIAN_POINT ( 'NONE',  ( 8.728703347107498122E-16, -4.898587196589219558E-16, 0.2499999999999903966 ) ) ;
#103 =( NAMED_UNIT ( * ) PLANE_ANGLE_UNIT ( ) SI_UNIT ( $, .RADIAN. ) );
#104 = CC_DESIGN_DATE_AND_TIME_ASSIGNMENT ( #83, #109, ( #64 ) ) ;
#105 = UNCERTAINTY_MEASURE_WITH_UNIT (LENGTH_MEASURE( 1.000000000000000082E-05 ), #138, 'distance_accuracy_value', 'NONE');
#106 = COORDINATED_UNIVERSAL_TIME_OFFSET ( 1, 0, .AHEAD. ) ;
#107 = AXIS2_PLACEMENT_3D ( 'NONE', #98, #164, #13 ) ;
#108 = PERSON_AND_ORGANIZATION ( #90, #146 ) ;
#109 = DATE_TIME_ROLE ( 'classification_date' ) ;
#110 = AXIS2_PLACEMENT_3D ( 'NONE', #152, #74, #77 ) ;
#111 = EDGE_CURVE ( 'NONE', #53, #53, #86, .T. ) ;
#112 = ORIENTED_EDGE ( 'NONE', *, *, #147, .T. ) ;
#113 = EDGE_LOOP ( 'NONE', ( #150 ) ) ;
#114 = ORIENTED_EDGE ( 'NONE', *, *, #9, .F. ) ;
#115 = PLANE ( 'NONE',  #110 ) ;
#116 = COORDINATED_UNIVERSAL_TIME_OFFSET ( 1, 0, .AHEAD. ) ;
#117 = APPROVAL_STATUS ( 'not_yet_approved' ) ;
#118 = APPROVAL_DATE_TIME ( #65, #157 ) ;
#119 = CC_DESIGN_DATE_AND_TIME_ASSIGNMENT ( #27, #3, ( #84 ) ) ;
#120 = CIRCLE ( 'NONE', #107, 5.000000000000000000 ) ;
#121 = CIRCLE ( 'NONE', #58, 20.00000000000000000 ) ;
#122 = APPROVAL_PERSON_ORGANIZATION ( #25, #157, #26 ) ;
#123 = CYLINDRICAL_SURFACE ( 'NONE', #85, 5.000000000000000888 ) ;
#124 = APPROVAL ( #94, 'UNSPECIFIED' ) ;
#125 = DIRECTION ( 'NONE',  ( -3.491481338843133355E-15, 1.959434878635763159E-15, -1.000000000000000000 ) ) ;
#126 = FACE_OUTER_BOUND ( 'NONE', #40, .T. ) ;
#127 = ORIENTED_EDGE ( 'NONE', *, *, #15, .F. ) ;
#128 = PERSON_AND_ORGANIZATION_ROLE ( 'design_owner' ) ;
#129 = PERSON_AND_ORGANIZATION ( #90, #146 ) ;
#130 = APPROVAL_DATE_TIME ( #69, #124 ) ;
#131 = APPROVAL_PERSON_ORGANIZATION ( #141, #124, #154 ) ;
#132 = CC_DESIGN_PERSON_AND_ORGANIZATION_ASSIGNMENT ( #95, #66, ( #84 ) ) ;
#133 = PERSON_AND_ORGANIZATION ( #90, #146 ) ;
#134 = FACE_OUTER_BOUND ( 'NONE', #113, .T. ) ;
#135 = DIRECTION ( 'NONE',  ( 1.000000000000000000, 0.0000000000000000000, 0.0000000000000000000 ) ) ;
#136 = FACE_OUTER_BOUND ( 'NONE', #36, .T. ) ;
#137 = CARTESIAN_POINT ( 'NONE',  ( 0.0000000000000000000, 0.0000000000000000000, 0.0000000000000000000 ) ) ;
#138 =( LENGTH_UNIT ( ) NAMED_UNIT ( * ) SI_UNIT ( .MILLI., .METRE. ) );
#139 = FACE_OUTER_BOUND ( 'NONE', #35, .T. ) ;
#140 = APPROVAL_STATUS ( 'not_yet_approved' ) ;
#141 = PERSON_AND_ORGANIZATION ( #90, #146 ) ;
#142 = LOCAL_TIME ( 13, 58, 30.00000000000000000, #18 ) ;
#143 = CALENDAR_DATE ( 2021, 6, 12 ) ;
#144 = ADVANCED_FACE ( 'NONE', ( #161, #50 ), #115, .T. ) ;
#145 = CC_DESIGN_APPROVAL ( #157, ( #84 ) ) ;
#146 = ORGANIZATION ( 'UNSPECIFIED', 'UNSPECIFIED', '' ) ;
#147 = EDGE_CURVE ( 'NONE', #165, #165, #44, .T. ) ;
#148 = APPLICATION_CONTEXT ( 'configuration controlled 3d designs of mechanical parts and assemblies' ) ;
#149 = APPLICATION_PROTOCOL_DEFINITION ( 'international standard', 'config_control_design', 1994, #148 ) ;
#150 = ORIENTED_EDGE ( 'NONE', *, *, #111, .F. ) ;
#151 = CARTESIAN_POINT ( 'NONE',  ( 0.0000000000000000000, 20.00000000000000000, 0.0000000000000000000 ) ) ;
#152 = CARTESIAN_POINT ( 'NONE',  ( -5.130997735076345984E-29, 5.000000000000000000, -1.469576158976822409E-14 ) ) ;
#153 =( NAMED_UNIT ( * ) SI_UNIT ( $, .STERADIAN. ) SOLID_ANGLE_UNIT ( ) );
#154 = APPROVAL_ROLE ( '' ) ;
#155 = SECURITY_CLASSIFICATION_LEVEL ( 'unclassified' ) ;
#156 = DATE_AND_TIME ( #57, #81 ) ;
#157 = APPROVAL ( #140, 'UNSPECIFIED' ) ;
#158 = ORIENTED_EDGE ( 'NONE', *, *, #147, .F. ) ;
#159 = CARTESIAN_POINT ( 'NONE',  ( 0.0000000000000000000, 0.0000000000000000000, 0.0000000000000000000 ) ) ;
#160 = EDGE_LOOP ( 'NONE', ( #112 ) ) ;
#161 = FACE_OUTER_BOUND ( 'NONE', #49, .T. ) ;
#162 = FACE_OUTER_BOUND ( 'NONE', #22, .T. ) ;
#163 = CC_DESIGN_APPROVAL ( #19, ( #76 ) ) ;
#164 = DIRECTION ( 'NONE',  ( -3.491481338843133355E-15, 1.959434878635763159E-15, -1.000000000000000000 ) ) ;
#165 = VERTEX_POINT ( 'NONE', #88 ) ;
#166 = ADVANCED_FACE ( 'NONE', ( #126, #139 ), #123, .F. ) ;
#167 = PERSON_AND_ORGANIZATION_ROLE ( 'creator' ) ;
#168 =( GEOMETRIC_REPRESENTATION_CONTEXT ( 3 ) GLOBAL_UNCERTAINTY_ASSIGNED_CONTEXT ( ( #105 ) ) GLOBAL_UNIT_ASSIGNED_CONTEXT ( ( #138, #103, #153 ) ) REPRESENTATION_CONTEXT ( 'NONE', 'WORKASPACE' ) );
#169 = PRODUCT_DEFINITION_SHAPE ( 'NONE', 'NONE',  #84 ) ;
ENDSEC;
END-ISO-10303-21;
