ISO-10303-21;
HEADER;
FILE_DESCRIPTION (( 'STEP AP203' ),
    '1' );
FILE_NAME ('220.step',
    '2021-10-06T08:24:39',
    ( '' ),
    ( '' ),
    'SwSTEP 2.0',
    'SolidWorks 2019',
    '' );
FILE_SCHEMA (( 'CONFIG_CONTROL_DESIGN' ));
ENDSEC;

DATA;
#1 = DIRECTION ( 'NONE',  ( -3.491481338843133355E-15, 1.224646799147353207E-16, -1.000000000000000000 ) ) ;
#2 = CARTESIAN_POINT ( 'NONE',  ( 1.319779946082704535E-13, 0.7749999999999962474, 37.79999999999999716 ) ) ;
#3 = ADVANCED_FACE ( 'NONE', ( #9 ), #24, .T. ) ;
#4 = PERSON_AND_ORGANIZATION ( #107, #72 ) ;
#5 = PERSON_AND_ORGANIZATION_ROLE ( 'creator' ) ;
#6 = PERSON_AND_ORGANIZATION ( #107, #72 ) ;
#7 = CC_DESIGN_APPROVAL ( #66, ( #159 ) ) ;
#8 = ORIENTED_EDGE ( 'NONE', *, *, #104, .F. ) ;
#9 = FACE_OUTER_BOUND ( 'NONE', #97, .T. ) ;
#10 = AXIS2_PLACEMENT_3D ( 'NONE', #198, #143, #178 ) ;
#11 = EDGE_LOOP ( 'NONE', ( #194 ) ) ;
#12 = FACE_BOUND ( 'NONE', #182, .T. ) ;
#13 = DIRECTION ( 'NONE',  ( 0.0000000000000000000, 1.000000000000000000, 0.0000000000000000000 ) ) ;
#14 = PERSON_AND_ORGANIZATION ( #107, #72 ) ;
#15 = PERSON_AND_ORGANIZATION_ROLE ( 'design_owner' ) ;
#16 = PRODUCT_DEFINITION_SHAPE ( 'NONE', 'NONE',  #37 ) ;
#17 = PERSON_AND_ORGANIZATION_ROLE ( 'classification_officer' ) ;
#18 = APPROVAL_ROLE ( '' ) ;
#19 = AXIS2_PLACEMENT_3D ( 'NONE', #119, #122, #165 ) ;
#20 = APPROVAL_DATE_TIME ( #58, #66 ) ;
#21 = AXIS2_PLACEMENT_3D ( 'NONE', #177, #41, #184 ) ;
#22 = CARTESIAN_POINT ( 'NONE',  ( 1.326762908760390423E-13, -4.653657836759941941E-15, 38.00000000000000000 ) ) ;
#23 = DIRECTION ( 'NONE',  ( -4.275831445896958607E-31, -1.000000000000000000, -1.224646799147353207E-16 ) ) ;
#24 = CONICAL_SURFACE ( 'NONE', #10, 0.7749999999999963585, 1.047197551196592746 ) ;
#25 = AXIS2_PLACEMENT_3D ( 'NONE', #65, #137, #203 ) ;
#26 = ADVANCED_FACE ( 'NONE', ( #38 ), #199, .F. ) ;
#27 = MECHANICAL_CONTEXT ( 'NONE', #90, 'mechanical' ) ;
#28 = CARTESIAN_POINT ( 'NONE',  ( 1.326762908760390423E-13, 0.5749999999999962919, 38.00000000000000000 ) ) ;
#29 = DIRECTION ( 'NONE',  ( 4.275831445896958607E-31, 1.000000000000000000, 1.224646799147353207E-16 ) ) ;
#30 = APPROVAL_STATUS ( 'not_yet_approved' ) ;
#31 = COORDINATED_UNIVERSAL_TIME_OFFSET ( 1, 0, .AHEAD. ) ;
#32 = CALENDAR_DATE ( 2021, 6, 10 ) ;
#33 = CIRCLE ( 'NONE', #114, 0.7749999999999963585 ) ;
#34 = DIRECTION ( 'NONE',  ( -4.275831445896958607E-31, -1.000000000000000000, -1.224646799147353207E-16 ) ) ;
#35 = UNCERTAINTY_MEASURE_WITH_UNIT (LENGTH_MEASURE( 1.000000000000000082E-05 ), #169, 'distance_accuracy_value', 'NONE');
#36 = EDGE_LOOP ( 'NONE', ( #145 ) ) ;
#37 = PRODUCT_DEFINITION ( 'UNKNOWN', '', #57, #142 ) ;
#38 = FACE_OUTER_BOUND ( 'NONE', #11, .T. ) ;
#39 = CARTESIAN_POINT ( 'NONE',  ( 0.0000000000000000000, 0.0000000000000000000, 0.0000000000000000000 ) ) ;
#40 = FACE_OUTER_BOUND ( 'NONE', #78, .T. ) ;
#41 = DIRECTION ( 'NONE',  ( -3.491481338843133355E-15, 1.224646799147353207E-16, -1.000000000000000000 ) ) ;
#42 = VERTEX_POINT ( 'NONE', #2 ) ;
#43 = PERSON_AND_ORGANIZATION ( #107, #72 ) ;
#44 = VERTEX_POINT ( 'NONE', #118 ) ;
#45 = CIRCLE ( 'NONE', #21, 0.7750000000000009104 ) ;
#46 = DATE_TIME_ROLE ( 'creation_date' ) ;
#47 = AXIS2_PLACEMENT_3D ( 'NONE', #39, #160, #100 ) ;
#48 = ORIENTED_EDGE ( 'NONE', *, *, #69, .T. ) ;
#49 = CC_DESIGN_APPROVAL ( #81, ( #37 ) ) ;
#50 = EDGE_LOOP ( 'NONE', ( #77 ) ) ;
#51 = ORIENTED_EDGE ( 'NONE', *, *, #148, .T. ) ;
#52 = CARTESIAN_POINT ( 'NONE',  ( 1.326762908760390423E-13, 4.311809375152777674E-33, 38.00000000000000000 ) ) ;
#53 = FACE_OUTER_BOUND ( 'NONE', #147, .T. ) ;
#54 = VERTEX_POINT ( 'NONE', #189 ) ;
#55 = CC_DESIGN_PERSON_AND_ORGANIZATION_ASSIGNMENT ( #14, #15, ( #112 ) ) ;
#56 = APPROVAL_DATE_TIME ( #174, #181 ) ;
#57 = PRODUCT_DEFINITION_FORMATION_WITH_SPECIFIED_SOURCE ( 'ANY', '', #112, .NOT_KNOWN. ) ;
#58 = DATE_AND_TIME ( #32, #79 ) ;
#59 = CALENDAR_DATE ( 2021, 6, 10 ) ;
#60 = CIRCLE ( 'NONE', #146, 0.5750000000000009548 ) ;
#61 = CARTESIAN_POINT ( 'NONE',  ( 3.142333204958820020E-14, 5.811569157814661966E-33, 9.000000000000000000 ) ) ;
#62 = LOCAL_TIME ( 10, 24, 39.00000000000000000, #71 ) ;
#63 = CYLINDRICAL_SURFACE ( 'NONE', #47, 0.7749999999999968026 ) ;
#64 = LOCAL_TIME ( 10, 24, 39.00000000000000000, #31 ) ;
#65 = CARTESIAN_POINT ( 'NONE',  ( 3.142333204958820020E-14, -1.102182119232617714E-15, 9.000000000000000000 ) ) ;
#66 = APPROVAL ( #125, 'UNSPECIFIED' ) ;
#67 = LOCAL_TIME ( 10, 24, 39.00000000000000000, #85 ) ;
#68 = DATE_AND_TIME ( #154, #67 ) ;
#69 = EDGE_CURVE ( 'NONE', #151, #151, #60, .T. ) ;
#70 = APPLICATION_CONTEXT ( 'configuration controlled 3d designs of mechanical parts and assemblies' ) ;
#71 = COORDINATED_UNIVERSAL_TIME_OFFSET ( 1, 0, .AHEAD. ) ;
#72 = ORGANIZATION ( 'UNSPECIFIED', 'UNSPECIFIED', '' ) ;
#73 = CC_DESIGN_PERSON_AND_ORGANIZATION_ASSIGNMENT ( #173, #5, ( #37 ) ) ;
#74 = PERSON_AND_ORGANIZATION_ROLE ( 'creator' ) ;
#75 = LOCAL_TIME ( 10, 24, 39.00000000000000000, #127 ) ;
#76 = PLANE ( 'NONE',  #135 ) ;
#77 = ORIENTED_EDGE ( 'NONE', *, *, #148, .F. ) ;
#78 = EDGE_LOOP ( 'NONE', ( #131 ) ) ;
#79 = LOCAL_TIME ( 10, 24, 39.00000000000000000, #86 ) ;
#80 = ORIENTED_EDGE ( 'NONE', *, *, #69, .F. ) ;
#81 = APPROVAL ( #30, 'UNSPECIFIED' ) ;
#82 = DIRECTION ( 'NONE',  ( -3.491481338843133355E-15, 1.224646799147353207E-16, -1.000000000000000000 ) ) ;
#83 = DIRECTION ( 'NONE',  ( -3.491481338843133355E-15, 1.224646799147353207E-16, -1.000000000000000000 ) ) ;
#84 = VERTEX_POINT ( 'NONE', #138 ) ;
#85 = COORDINATED_UNIVERSAL_TIME_OFFSET ( 1, 0, .AHEAD. ) ;
#86 = COORDINATED_UNIVERSAL_TIME_OFFSET ( 1, 0, .AHEAD. ) ;
#87 = ADVANCED_FACE ( 'NONE', ( #116 ), #95, .F. ) ;
#88 = SHAPE_DEFINITION_REPRESENTATION ( #16, #156 ) ;
#89 = CLOSED_SHELL ( 'NONE', ( #3, #93, #133 ) ) ;
#90 = APPLICATION_CONTEXT ( 'configuration controlled 3d designs of mechanical parts and assemblies' ) ;
#91 = CC_DESIGN_APPROVAL ( #181, ( #57 ) ) ;
#92 = PERSON_AND_ORGANIZATION ( #107, #72 ) ;
#93 = ADVANCED_FACE ( 'NONE', ( #117, #40 ), #63, .T. ) ;
#94 = CC_DESIGN_PERSON_AND_ORGANIZATION_ASSIGNMENT ( #92, #141, ( #57 ) ) ;
#95 = PLANE ( 'NONE',  #195 ) ;
#96 = PRODUCT_RELATED_PRODUCT_CATEGORY ( 'detail', '', ( #112 ) ) ;
#97 = EDGE_LOOP ( 'NONE', ( #115 ) ) ;
#98 = DIRECTION ( 'NONE',  ( 0.0000000000000000000, 1.000000000000000000, 0.0000000000000000000 ) ) ;
#99 = CARTESIAN_POINT ( 'NONE',  ( 1.562250960410029702E-15, -5.479638733412054887E-17, 0.4474464586219629170 ) ) ;
#100 = DIRECTION ( 'NONE',  ( 4.275831445896958607E-31, 1.000000000000000000, 1.224646799147353207E-16 ) ) ;
#101 = APPROVAL_PERSON_ORGANIZATION ( #6, #66, #18 ) ;
#102 = CYLINDRICAL_SURFACE ( 'NONE', #180, 0.7749999999999992450 ) ;
#103 = CARTESIAN_POINT ( 'NONE',  ( 1.326762908760390423E-13, -4.653657836759941941E-15, 38.00000000000000000 ) ) ;
#104 = EDGE_CURVE ( 'NONE', #84, #84, #33, .T. ) ;
#105 = APPROVAL_ROLE ( '' ) ;
#106 = PERSON_AND_ORGANIZATION ( #107, #72 ) ;
#107 = PERSON ( 'UNSPECIFIED', 'UNSPECIFIED', 'UNSPECIFIED', ('UNSPECIFIED'), ('UNSPECIFIED'), ('UNSPECIFIED') ) ;
#108 = APPROVAL_ROLE ( '' ) ;
#109 = DATE_AND_TIME ( #59, #75 ) ;
#110 = CONICAL_SURFACE ( 'NONE', #175, 0.5750000000000009548, 0.7853981633974512766 ) ;
#111 = DATE_AND_TIME ( #124, #64 ) ;
#112 = PRODUCT ( '220', '220', '', ( #27 ) ) ;
#113 = DIRECTION ( 'NONE',  ( 4.275831445896958607E-31, 1.000000000000000000, 1.224646799147353207E-16 ) ) ;
#114 = AXIS2_PLACEMENT_3D ( 'NONE', #99, #82, #128 ) ;
#115 = ORIENTED_EDGE ( 'NONE', *, *, #104, .T. ) ;
#116 = FACE_OUTER_BOUND ( 'NONE', #144, .T. ) ;
#117 = FACE_OUTER_BOUND ( 'NONE', #130, .T. ) ;
#118 = CARTESIAN_POINT ( 'NONE',  ( 3.142333204958820020E-14, 0.7749999999999962474, 9.000000000000000000 ) ) ;
#119 = CARTESIAN_POINT ( 'NONE',  ( 0.0000000000000000000, 0.0000000000000000000, 0.0000000000000000000 ) ) ;
#120 = CLOSED_SHELL ( 'NONE', ( #26, #152, #166, #87 ) ) ;
#121 = CARTESIAN_POINT ( 'NONE',  ( 0.0000000000000000000, 0.0000000000000000000, 0.0000000000000000000 ) ) ;
#122 = DIRECTION ( 'NONE',  ( 0.0000000000000000000, 0.0000000000000000000, 1.000000000000000000 ) ) ;
#123 = FACE_OUTER_BOUND ( 'NONE', #50, .T. ) ;
#124 = CALENDAR_DATE ( 2021, 6, 10 ) ;
#125 = APPROVAL_STATUS ( 'not_yet_approved' ) ;
#126 = AXIS2_PLACEMENT_3D ( 'NONE', #61, #163, #34 ) ;
#127 = COORDINATED_UNIVERSAL_TIME_OFFSET ( 1, 0, .AHEAD. ) ;
#128 = DIRECTION ( 'NONE',  ( 4.970141791967083659E-31, 1.000000000000000000, 1.398970545142592951E-16 ) ) ;
#129 = APPROVAL_PERSON_ORGANIZATION ( #43, #81, #105 ) ;
#130 = EDGE_LOOP ( 'NONE', ( #8 ) ) ;
#131 = ORIENTED_EDGE ( 'NONE', *, *, #197, .T. ) ;
#132 = DIRECTION ( 'NONE',  ( 3.491481338843133355E-15, -1.224646799147353207E-16, 1.000000000000000000 ) ) ;
#133 = ADVANCED_FACE ( 'NONE', ( #196 ), #76, .T. ) ;
#134 =( GEOMETRIC_REPRESENTATION_CONTEXT ( 3 ) GLOBAL_UNCERTAINTY_ASSIGNED_CONTEXT ( ( #35 ) ) GLOBAL_UNIT_ASSIGNED_CONTEXT ( ( #169, #183, #185 ) ) REPRESENTATION_CONTEXT ( 'NONE', 'WORKASPACE' ) );
#135 = AXIS2_PLACEMENT_3D ( 'NONE', #149, #132, #23 ) ;
#136 = CC_DESIGN_PERSON_AND_ORGANIZATION_ASSIGNMENT ( #191, #74, ( #57 ) ) ;
#137 = DIRECTION ( 'NONE',  ( -3.491481338843133355E-15, 1.224646799147353207E-16, -1.000000000000000000 ) ) ;
#138 = CARTESIAN_POINT ( 'NONE',  ( 1.562250960410030097E-15, 0.7749999999999962474, 0.4474464586219630280 ) ) ;
#139 = APPROVAL_DATE_TIME ( #68, #81 ) ;
#140 = CC_DESIGN_PERSON_AND_ORGANIZATION_ASSIGNMENT ( #4, #17, ( #159 ) ) ;
#141 = PERSON_AND_ORGANIZATION_ROLE ( 'design_supplier' ) ;
#142 = DESIGN_CONTEXT ( 'detailed design', #70, 'design' ) ;
#143 = DIRECTION ( 'NONE',  ( 3.491481338843133355E-15, -1.224646799147353207E-16, 1.000000000000000000 ) ) ;
#144 = EDGE_LOOP ( 'NONE', ( #80 ) ) ;
#145 = ORIENTED_EDGE ( 'NONE', *, *, #188, .F. ) ;
#146 = AXIS2_PLACEMENT_3D ( 'NONE', #22, #200, #98 ) ;
#147 = EDGE_LOOP ( 'NONE', ( #51 ) ) ;
#148 = EDGE_CURVE ( 'NONE', #42, #42, #45, .T. ) ;
#149 = CARTESIAN_POINT ( 'NONE',  ( 3.142333204958820020E-14, 5.811569157814661966E-33, 9.000000000000000000 ) ) ;
#150 = FACE_OUTER_BOUND ( 'NONE', #36, .T. ) ;
#151 = VERTEX_POINT ( 'NONE', #28 ) ;
#152 = ADVANCED_FACE ( 'NONE', ( #150, #53 ), #102, .T. ) ;
#153 = CARTESIAN_POINT ( 'NONE',  ( 3.142333204958820020E-14, -1.102182119232617714E-15, 9.000000000000000000 ) ) ;
#154 = CALENDAR_DATE ( 2021, 6, 10 ) ;
#155 = SECURITY_CLASSIFICATION_LEVEL ( 'unclassified' ) ;
#156 = ADVANCED_BREP_SHAPE_REPRESENTATION ( '220', ( #202, #193, #19 ), #134 ) ;
#157 = APPROVAL_PERSON_ORGANIZATION ( #106, #181, #108 ) ;
#158 = CALENDAR_DATE ( 2021, 6, 10 ) ;
#159 = SECURITY_CLASSIFICATION ( '', '', #155 ) ;
#160 = DIRECTION ( 'NONE',  ( -3.491481338843133355E-15, 1.224646799147353207E-16, -1.000000000000000000 ) ) ;
#161 = EDGE_LOOP ( 'NONE', ( #176 ) ) ;
#162 = CIRCLE ( 'NONE', #25, 0.7749999999999973577 ) ;
#163 = DIRECTION ( 'NONE',  ( 3.491481338843133355E-15, -1.224646799147353207E-16, 1.000000000000000000 ) ) ;
#164 = APPLICATION_PROTOCOL_DEFINITION ( 'international standard', 'config_control_design', 1994, #90 ) ;
#165 = DIRECTION ( 'NONE',  ( 1.000000000000000000, 0.0000000000000000000, 0.0000000000000000000 ) ) ;
#166 = ADVANCED_FACE ( 'NONE', ( #123, #12 ), #110, .T. ) ;
#167 = AXIS2_PLACEMENT_3D ( 'NONE', #153, #170, #13 ) ;
#168 = DIRECTION ( 'NONE',  ( 0.0000000000000000000, 1.000000000000000000, 0.0000000000000000000 ) ) ;
#169 =( LENGTH_UNIT ( ) NAMED_UNIT ( * ) SI_UNIT ( .MILLI., .METRE. ) );
#170 = DIRECTION ( 'NONE',  ( -3.491481338843133355E-15, 1.224646799147353207E-16, -1.000000000000000000 ) ) ;
#171 = CIRCLE ( 'NONE', #167, 0.7749999999999973577 ) ;
#172 = CC_DESIGN_DATE_AND_TIME_ASSIGNMENT ( #109, #46, ( #37 ) ) ;
#173 = PERSON_AND_ORGANIZATION ( #107, #72 ) ;
#174 = DATE_AND_TIME ( #158, #62 ) ;
#175 = AXIS2_PLACEMENT_3D ( 'NONE', #103, #1, #168 ) ;
#176 = ORIENTED_EDGE ( 'NONE', *, *, #197, .F. ) ;
#177 = CARTESIAN_POINT ( 'NONE',  ( 1.319779946082704535E-13, -4.629164900776995227E-15, 37.79999999999999716 ) ) ;
#178 = DIRECTION ( 'NONE',  ( -4.970141791967083659E-31, -1.000000000000000000, -1.398970545142592951E-16 ) ) ;
#179 = DIRECTION ( 'NONE',  ( -3.491481338843133355E-15, 1.224646799147353207E-16, -1.000000000000000000 ) ) ;
#180 = AXIS2_PLACEMENT_3D ( 'NONE', #121, #83, #29 ) ;
#181 = APPROVAL ( #192, 'UNSPECIFIED' ) ;
#182 = EDGE_LOOP ( 'NONE', ( #48 ) ) ;
#183 =( NAMED_UNIT ( * ) PLANE_ANGLE_UNIT ( ) SI_UNIT ( $, .RADIAN. ) );
#184 = DIRECTION ( 'NONE',  ( 0.0000000000000000000, 1.000000000000000000, 0.0000000000000000000 ) ) ;
#185 =( NAMED_UNIT ( * ) SI_UNIT ( $, .STERADIAN. ) SOLID_ANGLE_UNIT ( ) );
#186 = CC_DESIGN_DATE_AND_TIME_ASSIGNMENT ( #111, #190, ( #159 ) ) ;
#187 = APPLICATION_PROTOCOL_DEFINITION ( 'international standard', 'config_control_design', 1994, #70 ) ;
#188 = EDGE_CURVE ( 'NONE', #54, #54, #171, .T. ) ;
#189 = CARTESIAN_POINT ( 'NONE',  ( 3.142333204958820020E-14, 0.7749999999999962474, 9.000000000000000000 ) ) ;
#190 = DATE_TIME_ROLE ( 'classification_date' ) ;
#191 = PERSON_AND_ORGANIZATION ( #107, #72 ) ;
#192 = APPROVAL_STATUS ( 'not_yet_approved' ) ;
#193 = MANIFOLD_SOLID_BREP ( 'Corps-Déplacer/Copier1[2]', #89 ) ;
#194 = ORIENTED_EDGE ( 'NONE', *, *, #188, .T. ) ;
#195 = AXIS2_PLACEMENT_3D ( 'NONE', #52, #179, #113 ) ;
#196 = FACE_OUTER_BOUND ( 'NONE', #161, .T. ) ;
#197 = EDGE_CURVE ( 'NONE', #44, #44, #162, .T. ) ;
#198 = CARTESIAN_POINT ( 'NONE',  ( 1.562250960410029702E-15, -5.479638733412054887E-17, 0.4474464586219629170 ) ) ;
#199 = PLANE ( 'NONE',  #126 ) ;
#200 = DIRECTION ( 'NONE',  ( -3.491481338843133355E-15, 1.224646799147353207E-16, -1.000000000000000000 ) ) ;
#201 = CC_DESIGN_SECURITY_CLASSIFICATION ( #159, ( #57 ) ) ;
#202 = MANIFOLD_SOLID_BREP ( 'Corps-Déplacer/Copier1[1]', #120 ) ;
#203 = DIRECTION ( 'NONE',  ( 0.0000000000000000000, 1.000000000000000000, 0.0000000000000000000 ) ) ;
ENDSEC;
END-ISO-10303-21;
