ISO-10303-21;
HEADER;
FILE_DESCRIPTION (( 'STEP AP203' ),
    '1' );
FILE_NAME ('219.step',
    '2021-10-06T08:24:38',
    ( '' ),
    ( '' ),
    'SwSTEP 2.0',
    'SolidWorks 2019',
    '' );
FILE_SCHEMA (( 'CONFIG_CONTROL_DESIGN' ));
ENDSEC;

DATA;
#1 = DIRECTION ( 'NONE',  ( 3.491481338843133355E-15, -1.224646799147353207E-16, 1.000000000000000000 ) ) ;
#2 = EDGE_LOOP ( 'NONE', ( #22 ) ) ;
#3 = PERSON_AND_ORGANIZATION ( #70, #39 ) ;
#4 = LOCAL_TIME ( 10, 24, 38.00000000000000000, #192 ) ;
#5 = APPROVAL ( #143, 'UNSPECIFIED' ) ;
#6 = COORDINATED_UNIVERSAL_TIME_OFFSET ( 1, 0, .AHEAD. ) ;
#7 = CONICAL_SURFACE ( 'NONE', #46, 0.5500000000000000444, 0.7853981633974512766 ) ;
#8 =( LENGTH_UNIT ( ) NAMED_UNIT ( * ) SI_UNIT ( .MILLI., .METRE. ) );
#9 = APPROVAL_STATUS ( 'not_yet_approved' ) ;
#10 = CC_DESIGN_APPROVAL ( #5, ( #89 ) ) ;
#11 = AXIS2_PLACEMENT_3D ( 'NONE', #168, #112, #12 ) ;
#12 = DIRECTION ( 'NONE',  ( 0.0000000000000000000, 1.000000000000000000, 0.0000000000000000000 ) ) ;
#13 = FACE_OUTER_BOUND ( 'NONE', #137, .T. ) ;
#14 = DIRECTION ( 'NONE',  ( 4.275831445896959482E-31, 1.000000000000000000, 1.224646799147353207E-16 ) ) ;
#15 = EDGE_LOOP ( 'NONE', ( #104 ) ) ;
#16 = CARTESIAN_POINT ( 'NONE',  ( 2.793185071074506684E-14, -9.797174393178825657E-16, 8.000000000000000000 ) ) ;
#17 = CARTESIAN_POINT ( 'NONE',  ( 1.047444401652940007E-13, 0.5499999999999963807, 30.00000000000000000 ) ) ;
#18 =( GEOMETRIC_REPRESENTATION_CONTEXT ( 3 ) GLOBAL_UNCERTAINTY_ASSIGNED_CONTEXT ( ( #82 ) ) GLOBAL_UNIT_ASSIGNED_CONTEXT ( ( #8, #144, #34 ) ) REPRESENTATION_CONTEXT ( 'NONE', 'WORKASPACE' ) );
#19 = PERSON_AND_ORGANIZATION ( #70, #39 ) ;
#20 = VERTEX_POINT ( 'NONE', #17 ) ;
#21 = PRODUCT_DEFINITION_FORMATION_WITH_SPECIFIED_SOURCE ( 'ANY', '', #56, .NOT_KNOWN. ) ;
#22 = ORIENTED_EDGE ( 'NONE', *, *, #74, .T. ) ;
#23 = MANIFOLD_SOLID_BREP ( 'Corps-Déplacer/Copier1[1]', #189 ) ;
#24 = CC_DESIGN_PERSON_AND_ORGANIZATION_ASSIGNMENT ( #194, #55, ( #122 ) ) ;
#25 = PRODUCT_DEFINITION_SHAPE ( 'NONE', 'NONE',  #89 ) ;
#26 = ORIENTED_EDGE ( 'NONE', *, *, #140, .T. ) ;
#27 = CARTESIAN_POINT ( 'NONE',  ( 0.0000000000000000000, 0.0000000000000000000, 0.0000000000000000000 ) ) ;
#28 = CYLINDRICAL_SURFACE ( 'NONE', #147, 0.7499999999999986677 ) ;
#29 = CYLINDRICAL_SURFACE ( 'NONE', #51, 0.7499999999999967804 ) ;
#30 = CIRCLE ( 'NONE', #141, 0.7499999999999963363 ) ;
#31 = APPROVAL_PERSON_ORGANIZATION ( #102, #93, #198 ) ;
#32 = DIRECTION ( 'NONE',  ( -3.491481338843133355E-15, 1.224646799147353207E-16, -1.000000000000000000 ) ) ;
#33 = CARTESIAN_POINT ( 'NONE',  ( 1.047444401652940007E-13, 4.124339402320052999E-33, 30.00000000000000000 ) ) ;
#34 =( NAMED_UNIT ( * ) SI_UNIT ( $, .STERADIAN. ) SOLID_ANGLE_UNIT ( ) );
#35 = APPROVAL_ROLE ( '' ) ;
#36 = MECHANICAL_CONTEXT ( 'NONE', #156, 'mechanical' ) ;
#37 = APPROVAL_ROLE ( '' ) ;
#38 = VERTEX_POINT ( 'NONE', #190 ) ;
#39 = ORGANIZATION ( 'UNSPECIFIED', 'UNSPECIFIED', '' ) ;
#40 = CC_DESIGN_PERSON_AND_ORGANIZATION_ASSIGNMENT ( #19, #98, ( #56 ) ) ;
#41 = EDGE_CURVE ( 'NONE', #142, #142, #155, .T. ) ;
#42 = CLOSED_SHELL ( 'NONE', ( #83, #184, #103 ) ) ;
#43 = DATE_AND_TIME ( #67, #4 ) ;
#44 = DATE_AND_TIME ( #148, #111 ) ;
#45 = DIRECTION ( 'NONE',  ( 3.491481338843133355E-15, -1.224646799147353207E-16, 1.000000000000000000 ) ) ;
#46 = AXIS2_PLACEMENT_3D ( 'NONE', #139, #91, #138 ) ;
#47 = DIRECTION ( 'NONE',  ( 5.135813185032654048E-31, 1.000000000000000000, 1.445602896647346312E-16 ) ) ;
#48 = CARTESIAN_POINT ( 'NONE',  ( 2.793185071074506684E-14, 5.624099184981931818E-33, 8.000000000000000000 ) ) ;
#49 = DIRECTION ( 'NONE',  ( 0.0000000000000000000, 1.000000000000000000, 0.0000000000000000000 ) ) ;
#50 = CARTESIAN_POINT ( 'NONE',  ( 2.793185071074506684E-14, -9.797174393178825657E-16, 8.000000000000000000 ) ) ;
#51 = AXIS2_PLACEMENT_3D ( 'NONE', #27, #154, #151 ) ;
#52 = COORDINATED_UNIVERSAL_TIME_OFFSET ( 1, 0, .AHEAD. ) ;
#53 = AXIS2_PLACEMENT_3D ( 'NONE', #50, #32, #90 ) ;
#54 = ADVANCED_FACE ( 'NONE', ( #61 ), #57, .F. ) ;
#55 = PERSON_AND_ORGANIZATION_ROLE ( 'classification_officer' ) ;
#56 = PRODUCT ( '219', '219', '', ( #36 ) ) ;
#57 = PLANE ( 'NONE',  #88 ) ;
#58 = APPROVAL_PERSON_ORGANIZATION ( #176, #149, #37 ) ;
#59 = DIRECTION ( 'NONE',  ( 3.491481338843133355E-15, -1.224646799147353207E-16, 1.000000000000000000 ) ) ;
#60 = DIRECTION ( 'NONE',  ( -5.135813185032654048E-31, -1.000000000000000000, -1.445602896647346312E-16 ) ) ;
#61 = FACE_OUTER_BOUND ( 'NONE', #203, .T. ) ;
#62 = CC_DESIGN_PERSON_AND_ORGANIZATION_ASSIGNMENT ( #127, #159, ( #21 ) ) ;
#63 = PERSON_AND_ORGANIZATION_ROLE ( 'creator' ) ;
#64 = CARTESIAN_POINT ( 'NONE',  ( 2.793185071074506684E-14, 0.7499999999999963363, 8.000000000000000000 ) ) ;
#65 = PERSON_AND_ORGANIZATION ( #70, #39 ) ;
#66 = PERSON_AND_ORGANIZATION ( #70, #39 ) ;
#67 = CALENDAR_DATE ( 2021, 6, 10 ) ;
#68 = EDGE_LOOP ( 'NONE', ( #199 ) ) ;
#69 = LOCAL_TIME ( 10, 24, 38.00000000000000000, #52 ) ;
#70 = PERSON ( 'UNSPECIFIED', 'UNSPECIFIED', 'UNSPECIFIED', ('UNSPECIFIED'), ('UNSPECIFIED'), ('UNSPECIFIED') ) ;
#71 = ORIENTED_EDGE ( 'NONE', *, *, #41, .T. ) ;
#72 = DIRECTION ( 'NONE',  ( -4.275831445896958607E-31, -1.000000000000000000, -1.224646799147353207E-16 ) ) ;
#73 = ADVANCED_FACE ( 'NONE', ( #75, #125 ), #28, .T. ) ;
#74 = EDGE_CURVE ( 'NONE', #20, #20, #173, .T. ) ;
#75 = FACE_OUTER_BOUND ( 'NONE', #117, .T. ) ;
#76 = APPROVAL_DATE_TIME ( #100, #149 ) ;
#77 = AXIS2_PLACEMENT_3D ( 'NONE', #33, #158, #96 ) ;
#78 = DIRECTION ( 'NONE',  ( 1.000000000000000000, 0.0000000000000000000, 0.0000000000000000000 ) ) ;
#79 = ADVANCED_FACE ( 'NONE', ( #136, #157 ), #7, .T. ) ;
#80 = APPROVAL_DATE_TIME ( #129, #5 ) ;
#81 = APPROVAL_PERSON_ORGANIZATION ( #66, #5, #35 ) ;
#82 = UNCERTAINTY_MEASURE_WITH_UNIT (LENGTH_MEASURE( 1.000000000000000082E-05 ), #8, 'distance_accuracy_value', 'NONE');
#83 = ADVANCED_FACE ( 'NONE', ( #183 ), #101, .T. ) ;
#84 = SHAPE_DEFINITION_REPRESENTATION ( #25, #181 ) ;
#85 = FACE_OUTER_BOUND ( 'NONE', #200, .T. ) ;
#86 = CARTESIAN_POINT ( 'NONE',  ( 0.0000000000000000000, 0.0000000000000000000, 0.0000000000000000000 ) ) ;
#87 = FACE_OUTER_BOUND ( 'NONE', #167, .T. ) ;
#88 = AXIS2_PLACEMENT_3D ( 'NONE', #48, #59, #108 ) ;
#89 = PRODUCT_DEFINITION ( 'UNKNOWN', '', #21, #179 ) ;
#90 = DIRECTION ( 'NONE',  ( 0.0000000000000000000, 1.000000000000000000, 0.0000000000000000000 ) ) ;
#91 = DIRECTION ( 'NONE',  ( -3.491481338843133355E-15, 1.224646799147353207E-16, -1.000000000000000000 ) ) ;
#92 = DATE_TIME_ROLE ( 'creation_date' ) ;
#93 = APPROVAL ( #9, 'UNSPECIFIED' ) ;
#94 = MANIFOLD_SOLID_BREP ( 'Corps-Déplacer/Copier1[2]', #42 ) ;
#95 = CIRCLE ( 'NONE', #11, 0.7500000000000000000 ) ;
#96 = DIRECTION ( 'NONE',  ( 4.275831445896958607E-31, 1.000000000000000000, 1.224646799147353207E-16 ) ) ;
#97 = APPLICATION_PROTOCOL_DEFINITION ( 'international standard', 'config_control_design', 1994, #150 ) ;
#98 = PERSON_AND_ORGANIZATION_ROLE ( 'design_owner' ) ;
#99 = CC_DESIGN_PERSON_AND_ORGANIZATION_ASSIGNMENT ( #3, #63, ( #21 ) ) ;
#100 = DATE_AND_TIME ( #116, #69 ) ;
#101 = CONICAL_SURFACE ( 'NONE', #118, 0.7499999999999963363, 1.047197551196592746 ) ;
#102 = PERSON_AND_ORGANIZATION ( #70, #39 ) ;
#103 = ADVANCED_FACE ( 'NONE', ( #13 ), #109, .T. ) ;
#104 = ORIENTED_EDGE ( 'NONE', *, *, #178, .F. ) ;
#105 = CARTESIAN_POINT ( 'NONE',  ( 1.047444401652940007E-13, -3.673940397442059178E-15, 30.00000000000000000 ) ) ;
#106 = CIRCLE ( 'NONE', #53, 0.7499999999999973355 ) ;
#107 = ORIENTED_EDGE ( 'NONE', *, *, #140, .F. ) ;
#108 = DIRECTION ( 'NONE',  ( -4.275831445896958607E-31, -1.000000000000000000, -1.224646799147353207E-16 ) ) ;
#109 = PLANE ( 'NONE',  #202 ) ;
#110 = LOCAL_TIME ( 10, 24, 38.00000000000000000, #130 ) ;
#111 = LOCAL_TIME ( 10, 24, 38.00000000000000000, #132 ) ;
#112 = DIRECTION ( 'NONE',  ( -3.491481338843133355E-15, 1.224646799147353207E-16, -1.000000000000000000 ) ) ;
#113 = AXIS2_PLACEMENT_3D ( 'NONE', #114, #172, #78 ) ;
#114 = CARTESIAN_POINT ( 'NONE',  ( 0.0000000000000000000, 0.0000000000000000000, 0.0000000000000000000 ) ) ;
#115 = CALENDAR_DATE ( 2021, 6, 10 ) ;
#116 = CALENDAR_DATE ( 2021, 6, 10 ) ;
#117 = EDGE_LOOP ( 'NONE', ( #187 ) ) ;
#118 = AXIS2_PLACEMENT_3D ( 'NONE', #201, #1, #60 ) ;
#119 = EDGE_LOOP ( 'NONE', ( #26 ) ) ;
#120 = ORIENTED_EDGE ( 'NONE', *, *, #178, .T. ) ;
#121 = CARTESIAN_POINT ( 'NONE',  ( 2.793185071074506684E-14, 5.624099184981931818E-33, 8.000000000000000000 ) ) ;
#122 = SECURITY_CLASSIFICATION ( '', '', #171 ) ;
#123 = DIRECTION ( 'NONE',  ( -3.491481338843133355E-15, 1.224646799147353207E-16, -1.000000000000000000 ) ) ;
#124 = CARTESIAN_POINT ( 'NONE',  ( 1.511855768138738753E-15, -5.302876193624570319E-17, 0.4330127018922222959 ) ) ;
#125 = FACE_OUTER_BOUND ( 'NONE', #185, .T. ) ;
#126 = CC_DESIGN_APPROVAL ( #149, ( #21 ) ) ;
#127 = PERSON_AND_ORGANIZATION ( #70, #39 ) ;
#128 = APPLICATION_PROTOCOL_DEFINITION ( 'international standard', 'config_control_design', 1994, #156 ) ;
#129 = DATE_AND_TIME ( #115, #197 ) ;
#130 = COORDINATED_UNIVERSAL_TIME_OFFSET ( 1, 0, .AHEAD. ) ;
#131 = DATE_AND_TIME ( #161, #110 ) ;
#132 = COORDINATED_UNIVERSAL_TIME_OFFSET ( 1, 0, .AHEAD. ) ;
#133 = CC_DESIGN_PERSON_AND_ORGANIZATION_ASSIGNMENT ( #65, #175, ( #89 ) ) ;
#134 = ORIENTED_EDGE ( 'NONE', *, *, #135, .F. ) ;
#135 = EDGE_CURVE ( 'NONE', #38, #38, #30, .T. ) ;
#136 = FACE_OUTER_BOUND ( 'NONE', #15, .T. ) ;
#137 = EDGE_LOOP ( 'NONE', ( #107 ) ) ;
#138 = DIRECTION ( 'NONE',  ( 0.0000000000000000000, 1.000000000000000000, 0.0000000000000000000 ) ) ;
#139 = CARTESIAN_POINT ( 'NONE',  ( 1.047444401652940007E-13, -3.673940397442059178E-15, 30.00000000000000000 ) ) ;
#140 = EDGE_CURVE ( 'NONE', #163, #163, #106, .T. ) ;
#141 = AXIS2_PLACEMENT_3D ( 'NONE', #124, #182, #47 ) ;
#142 = VERTEX_POINT ( 'NONE', #64 ) ;
#143 = APPROVAL_STATUS ( 'not_yet_approved' ) ;
#144 =( NAMED_UNIT ( * ) PLANE_ANGLE_UNIT ( ) SI_UNIT ( $, .RADIAN. ) );
#145 = CC_DESIGN_SECURITY_CLASSIFICATION ( #122, ( #21 ) ) ;
#146 = VERTEX_POINT ( 'NONE', #160 ) ;
#147 = AXIS2_PLACEMENT_3D ( 'NONE', #86, #153, #14 ) ;
#148 = CALENDAR_DATE ( 2021, 6, 10 ) ;
#149 = APPROVAL ( #191, 'UNSPECIFIED' ) ;
#150 = APPLICATION_CONTEXT ( 'configuration controlled 3d designs of mechanical parts and assemblies' ) ;
#151 = DIRECTION ( 'NONE',  ( 4.275831445896958607E-31, 1.000000000000000000, 1.224646799147353207E-16 ) ) ;
#152 = PRODUCT_RELATED_PRODUCT_CATEGORY ( 'detail', '', ( #56 ) ) ;
#153 = DIRECTION ( 'NONE',  ( -3.491481338843133355E-15, 1.224646799147353207E-16, -1.000000000000000000 ) ) ;
#154 = DIRECTION ( 'NONE',  ( -3.491481338843133355E-15, 1.224646799147353207E-16, -1.000000000000000000 ) ) ;
#155 = CIRCLE ( 'NONE', #162, 0.7499999999999973355 ) ;
#156 = APPLICATION_CONTEXT ( 'configuration controlled 3d designs of mechanical parts and assemblies' ) ;
#157 = FACE_BOUND ( 'NONE', #2, .T. ) ;
#158 = DIRECTION ( 'NONE',  ( -3.491481338843133355E-15, 1.224646799147353207E-16, -1.000000000000000000 ) ) ;
#159 = PERSON_AND_ORGANIZATION_ROLE ( 'design_supplier' ) ;
#160 = CARTESIAN_POINT ( 'NONE',  ( 1.040461438975253740E-13, 0.7499999999999963363, 29.80000000000000071 ) ) ;
#161 = CALENDAR_DATE ( 2021, 6, 10 ) ;
#162 = AXIS2_PLACEMENT_3D ( 'NONE', #16, #169, #49 ) ;
#163 = VERTEX_POINT ( 'NONE', #188 ) ;
#164 = APPROVAL_DATE_TIME ( #44, #93 ) ;
#165 = CC_DESIGN_DATE_AND_TIME_ASSIGNMENT ( #43, #196, ( #122 ) ) ;
#166 = FACE_OUTER_BOUND ( 'NONE', #119, .T. ) ;
#167 = EDGE_LOOP ( 'NONE', ( #177 ) ) ;
#168 = CARTESIAN_POINT ( 'NONE',  ( 1.040461438975253740E-13, -3.649447461459112464E-15, 29.80000000000000071 ) ) ;
#169 = DIRECTION ( 'NONE',  ( -3.491481338843133355E-15, 1.224646799147353207E-16, -1.000000000000000000 ) ) ;
#170 = PLANE ( 'NONE',  #77 ) ;
#171 = SECURITY_CLASSIFICATION_LEVEL ( 'unclassified' ) ;
#172 = DIRECTION ( 'NONE',  ( 0.0000000000000000000, 0.0000000000000000000, 1.000000000000000000 ) ) ;
#173 = CIRCLE ( 'NONE', #193, 0.5500000000000000444 ) ;
#174 = CC_DESIGN_APPROVAL ( #93, ( #122 ) ) ;
#175 = PERSON_AND_ORGANIZATION_ROLE ( 'creator' ) ;
#176 = PERSON_AND_ORGANIZATION ( #70, #39 ) ;
#177 = ORIENTED_EDGE ( 'NONE', *, *, #74, .F. ) ;
#178 = EDGE_CURVE ( 'NONE', #146, #146, #95, .T. ) ;
#179 = DESIGN_CONTEXT ( 'detailed design', #150, 'design' ) ;
#180 = DIRECTION ( 'NONE',  ( 0.0000000000000000000, 1.000000000000000000, 0.0000000000000000000 ) ) ;
#181 = ADVANCED_BREP_SHAPE_REPRESENTATION ( '219', ( #23, #94, #113 ), #18 ) ;
#182 = DIRECTION ( 'NONE',  ( -3.491481338843133355E-15, 1.224646799147353207E-16, -1.000000000000000000 ) ) ;
#183 = FACE_OUTER_BOUND ( 'NONE', #68, .T. ) ;
#184 = ADVANCED_FACE ( 'NONE', ( #85, #166 ), #29, .T. ) ;
#185 = EDGE_LOOP ( 'NONE', ( #120 ) ) ;
#186 = CC_DESIGN_DATE_AND_TIME_ASSIGNMENT ( #131, #92, ( #89 ) ) ;
#187 = ORIENTED_EDGE ( 'NONE', *, *, #41, .F. ) ;
#188 = CARTESIAN_POINT ( 'NONE',  ( 2.793185071074506684E-14, 0.7499999999999963363, 8.000000000000000000 ) ) ;
#189 = CLOSED_SHELL ( 'NONE', ( #54, #73, #79, #195 ) ) ;
#190 = CARTESIAN_POINT ( 'NONE',  ( 1.511855768138739147E-15, 0.7499999999999963363, 0.4330127018922224069 ) ) ;
#191 = APPROVAL_STATUS ( 'not_yet_approved' ) ;
#192 = COORDINATED_UNIVERSAL_TIME_OFFSET ( 1, 0, .AHEAD. ) ;
#193 = AXIS2_PLACEMENT_3D ( 'NONE', #105, #123, #180 ) ;
#194 = PERSON_AND_ORGANIZATION ( #70, #39 ) ;
#195 = ADVANCED_FACE ( 'NONE', ( #87 ), #170, .F. ) ;
#196 = DATE_TIME_ROLE ( 'classification_date' ) ;
#197 = LOCAL_TIME ( 10, 24, 38.00000000000000000, #6 ) ;
#198 = APPROVAL_ROLE ( '' ) ;
#199 = ORIENTED_EDGE ( 'NONE', *, *, #135, .T. ) ;
#200 = EDGE_LOOP ( 'NONE', ( #134 ) ) ;
#201 = CARTESIAN_POINT ( 'NONE',  ( 1.511855768138738753E-15, -5.302876193624570319E-17, 0.4330127018922222959 ) ) ;
#202 = AXIS2_PLACEMENT_3D ( 'NONE', #121, #45, #72 ) ;
#203 = EDGE_LOOP ( 'NONE', ( #71 ) ) ;
ENDSEC;
END-ISO-10303-21;
