ISO-10303-21;
HEADER;
FILE_DESCRIPTION (( 'STEP AP203' ),
    '1' );
FILE_NAME ('218.step',
    '2021-10-06T08:24:36',
    ( '' ),
    ( '' ),
    'SwSTEP 2.0',
    'SolidWorks 2019',
    '' );
FILE_SCHEMA (( 'CONFIG_CONTROL_DESIGN' ));
ENDSEC;

DATA;
#1 = EDGE_CURVE ( 'NONE', #181, #181, #14, .T. ) ;
#2 = AXIS2_PLACEMENT_3D ( 'NONE', #28, #121, #168 ) ;
#3 = CC_DESIGN_APPROVAL ( #189, ( #87 ) ) ;
#4 = DIRECTION ( 'NONE',  ( -4.275831445896958607E-31, -1.000000000000000000, -1.224646799147353207E-16 ) ) ;
#5 = CARTESIAN_POINT ( 'NONE',  ( 2.793185071074506684E-14, 0.7249999999999963141, 8.000000000000000000 ) ) ;
#6 = FACE_OUTER_BOUND ( 'NONE', #57, .T. ) ;
#7 = CYLINDRICAL_SURFACE ( 'NONE', #85, 0.7249999999999986455 ) ;
#8 = ADVANCED_FACE ( 'NONE', ( #92 ), #72, .T. ) ;
#9 = PERSON_AND_ORGANIZATION ( #25, #176 ) ;
#10 = DIRECTION ( 'NONE',  ( -5.312910191413091844E-31, -1.000000000000000000, -1.495451272393806938E-16 ) ) ;
#11 = COORDINATED_UNIVERSAL_TIME_OFFSET ( 1, 0, .AHEAD. ) ;
#12 = ORIENTED_EDGE ( 'NONE', *, *, #17, .F. ) ;
#13 = ORIENTED_EDGE ( 'NONE', *, *, #64, .T. ) ;
#14 = CIRCLE ( 'NONE', #127, 0.5250000000000000222 ) ;
#15 = EDGE_LOOP ( 'NONE', ( #93 ) ) ;
#16 = DATE_TIME_ROLE ( 'creation_date' ) ;
#17 = EDGE_CURVE ( 'NONE', #18, #18, #30, .T. ) ;
#18 = VERTEX_POINT ( 'NONE', #114 ) ;
#19 = CIRCLE ( 'NONE', #2, 0.7249999999999972022 ) ;
#20 = PERSON_AND_ORGANIZATION_ROLE ( 'design_owner' ) ;
#21 = APPLICATION_PROTOCOL_DEFINITION ( 'international standard', 'config_control_design', 1994, #82 ) ;
#22 = ORIENTED_EDGE ( 'NONE', *, *, #42, .T. ) ;
#23 =( NAMED_UNIT ( * ) PLANE_ANGLE_UNIT ( ) SI_UNIT ( $, .RADIAN. ) );
#24 = FACE_OUTER_BOUND ( 'NONE', #202, .T. ) ;
#25 = PERSON ( 'UNSPECIFIED', 'UNSPECIFIED', 'UNSPECIFIED', ('UNSPECIFIED'), ('UNSPECIFIED'), ('UNSPECIFIED') ) ;
#26 = PERSON_AND_ORGANIZATION_ROLE ( 'creator' ) ;
#27 = EDGE_LOOP ( 'NONE', ( #130 ) ) ;
#28 = CARTESIAN_POINT ( 'NONE',  ( 2.793185071074506684E-14, -9.797174393178825657E-16, 8.000000000000000000 ) ) ;
#29 = CARTESIAN_POINT ( 'NONE',  ( 1.461460575867446619E-15, -5.126113653837081437E-17, 0.4185789451624812862 ) ) ;
#30 = CIRCLE ( 'NONE', #84, 0.7249999999999999778 ) ;
#31 = DATE_TIME_ROLE ( 'classification_date' ) ;
#32 = CONICAL_SURFACE ( 'NONE', #109, 0.5250000000000000222, 0.7853981633974512766 ) ;
#33 = PERSON_AND_ORGANIZATION ( #25, #176 ) ;
#34 = APPROVAL_PERSON_ORGANIZATION ( #33, #142, #170 ) ;
#35 = DATE_AND_TIME ( #178, #158 ) ;
#36 = SECURITY_CLASSIFICATION ( '', '', #80 ) ;
#37 = DIRECTION ( 'NONE',  ( -3.491481338843133355E-15, 1.224646799147353207E-16, -1.000000000000000000 ) ) ;
#38 = FACE_OUTER_BOUND ( 'NONE', #196, .T. ) ;
#39 = EDGE_LOOP ( 'NONE', ( #13 ) ) ;
#40 = MECHANICAL_CONTEXT ( 'NONE', #82, 'mechanical' ) ;
#41 = CARTESIAN_POINT ( 'NONE',  ( 1.461460575867446619E-15, -5.126113653837081437E-17, 0.4185789451624812862 ) ) ;
#42 = EDGE_CURVE ( 'NONE', #106, #106, #19, .T. ) ;
#43 = DIRECTION ( 'NONE',  ( -3.491481338843133355E-15, 1.224646799147353207E-16, -1.000000000000000000 ) ) ;
#44 = CC_DESIGN_PERSON_AND_ORGANIZATION_ASSIGNMENT ( #161, #20, ( #144 ) ) ;
#45 = CARTESIAN_POINT ( 'NONE',  ( 1.040461438975253740E-13, -3.649447461459112464E-15, 29.80000000000000071 ) ) ;
#46 = APPROVAL_DATE_TIME ( #120, #190 ) ;
#47 = DATE_AND_TIME ( #201, #52 ) ;
#48 = CLOSED_SHELL ( 'NONE', ( #96, #171, #8 ) ) ;
#49 = AXIS2_PLACEMENT_3D ( 'NONE', #136, #153, #186 ) ;
#50 = APPROVAL_ROLE ( '' ) ;
#51 = CARTESIAN_POINT ( 'NONE',  ( 1.047444401652940007E-13, 3.936869429487320114E-33, 30.00000000000000000 ) ) ;
#52 = LOCAL_TIME ( 10, 24, 36.00000000000000000, #138 ) ;
#53 = DIRECTION ( 'NONE',  ( 0.0000000000000000000, 1.000000000000000000, 0.0000000000000000000 ) ) ;
#54 = CARTESIAN_POINT ( 'NONE',  ( 0.0000000000000000000, 0.0000000000000000000, 0.0000000000000000000 ) ) ;
#55 = DIRECTION ( 'NONE',  ( 5.312910191413091844E-31, 1.000000000000000000, 1.495451272393806938E-16 ) ) ;
#56 = APPROVAL_DATE_TIME ( #197, #189 ) ;
#57 = EDGE_LOOP ( 'NONE', ( #154 ) ) ;
#58 = APPROVAL_ROLE ( '' ) ;
#59 = ORIENTED_EDGE ( 'NONE', *, *, #105, .T. ) ;
#60 = COORDINATED_UNIVERSAL_TIME_OFFSET ( 1, 0, .AHEAD. ) ;
#61 = AXIS2_PLACEMENT_3D ( 'NONE', #104, #101, #113 ) ;
#62 = ORIENTED_EDGE ( 'NONE', *, *, #1, .F. ) ;
#63 = APPROVAL_STATUS ( 'not_yet_approved' ) ;
#64 = EDGE_CURVE ( 'NONE', #118, #118, #150, .T. ) ;
#65 = CARTESIAN_POINT ( 'NONE',  ( 2.793185071074506684E-14, 5.436629212149198933E-33, 8.000000000000000000 ) ) ;
#66 = DIRECTION ( 'NONE',  ( 4.275831445896958607E-31, 1.000000000000000000, 1.224646799147353207E-16 ) ) ;
#67 = CARTESIAN_POINT ( 'NONE',  ( 1.461460575867447014E-15, 0.7249999999999963141, 0.4185789451624813973 ) ) ;
#68 = DIRECTION ( 'NONE',  ( -3.491481338843133355E-15, 1.224646799147353207E-16, -1.000000000000000000 ) ) ;
#69 = APPROVAL_STATUS ( 'not_yet_approved' ) ;
#70 = CARTESIAN_POINT ( 'NONE',  ( 0.0000000000000000000, 0.0000000000000000000, 0.0000000000000000000 ) ) ;
#71 = PLANE ( 'NONE',  #184 ) ;
#72 = PLANE ( 'NONE',  #49 ) ;
#73 = CC_DESIGN_SECURITY_CLASSIFICATION ( #36, ( #122 ) ) ;
#74 = EDGE_LOOP ( 'NONE', ( #76 ) ) ;
#75 = SHAPE_DEFINITION_REPRESENTATION ( #115, #143 ) ;
#76 = ORIENTED_EDGE ( 'NONE', *, *, #105, .F. ) ;
#77 = COORDINATED_UNIVERSAL_TIME_OFFSET ( 1, 0, .AHEAD. ) ;
#78 = APPLICATION_CONTEXT ( 'configuration controlled 3d designs of mechanical parts and assemblies' ) ;
#79 = APPROVAL_DATE_TIME ( #188, #142 ) ;
#80 = SECURITY_CLASSIFICATION_LEVEL ( 'unclassified' ) ;
#81 =( GEOMETRIC_REPRESENTATION_CONTEXT ( 3 ) GLOBAL_UNCERTAINTY_ASSIGNED_CONTEXT ( ( #155 ) ) GLOBAL_UNIT_ASSIGNED_CONTEXT ( ( #102, #23, #195 ) ) REPRESENTATION_CONTEXT ( 'NONE', 'WORKASPACE' ) );
#82 = APPLICATION_CONTEXT ( 'configuration controlled 3d designs of mechanical parts and assemblies' ) ;
#83 = CC_DESIGN_PERSON_AND_ORGANIZATION_ASSIGNMENT ( #203, #169, ( #122 ) ) ;
#84 = AXIS2_PLACEMENT_3D ( 'NONE', #45, #111, #53 ) ;
#85 = AXIS2_PLACEMENT_3D ( 'NONE', #70, #68, #134 ) ;
#86 = DIRECTION ( 'NONE',  ( 4.275831445896958607E-31, 1.000000000000000000, 1.224646799147353207E-16 ) ) ;
#87 = PRODUCT_DEFINITION ( 'UNKNOWN', '', #122, #191 ) ;
#88 = COORDINATED_UNIVERSAL_TIME_OFFSET ( 1, 0, .AHEAD. ) ;
#89 = FACE_OUTER_BOUND ( 'NONE', #15, .T. ) ;
#90 = ORIENTED_EDGE ( 'NONE', *, *, #42, .F. ) ;
#91 = AXIS2_PLACEMENT_3D ( 'NONE', #54, #147, #86 ) ;
#92 = FACE_OUTER_BOUND ( 'NONE', #74, .T. ) ;
#93 = ORIENTED_EDGE ( 'NONE', *, *, #17, .T. ) ;
#94 = CC_DESIGN_APPROVAL ( #142, ( #122 ) ) ;
#95 = EDGE_LOOP ( 'NONE', ( #59 ) ) ;
#96 = ADVANCED_FACE ( 'NONE', ( #179 ), #167, .T. ) ;
#97 = APPROVAL_STATUS ( 'not_yet_approved' ) ;
#98 = LOCAL_TIME ( 10, 24, 36.00000000000000000, #88 ) ;
#99 = MANIFOLD_SOLID_BREP ( 'Corps-Déplacer/Copier1[2]', #48 ) ;
#100 = ADVANCED_FACE ( 'NONE', ( #38, #89 ), #7, .T. ) ;
#101 = DIRECTION ( 'NONE',  ( 0.0000000000000000000, 0.0000000000000000000, 1.000000000000000000 ) ) ;
#102 =( LENGTH_UNIT ( ) NAMED_UNIT ( * ) SI_UNIT ( .MILLI., .METRE. ) );
#103 = EDGE_LOOP ( 'NONE', ( #22 ) ) ;
#104 = CARTESIAN_POINT ( 'NONE',  ( 0.0000000000000000000, 0.0000000000000000000, 0.0000000000000000000 ) ) ;
#105 = EDGE_CURVE ( 'NONE', #128, #128, #173, .T. ) ;
#106 = VERTEX_POINT ( 'NONE', #129 ) ;
#107 = CARTESIAN_POINT ( 'NONE',  ( 1.047444401652940007E-13, -3.673940397442059178E-15, 30.00000000000000000 ) ) ;
#108 = CC_DESIGN_DATE_AND_TIME_ASSIGNMENT ( #35, #16, ( #87 ) ) ;
#109 = AXIS2_PLACEMENT_3D ( 'NONE', #107, #43, #175 ) ;
#110 = CC_DESIGN_PERSON_AND_ORGANIZATION_ASSIGNMENT ( #124, #112, ( #36 ) ) ;
#111 = DIRECTION ( 'NONE',  ( -3.491481338843133355E-15, 1.224646799147353207E-16, -1.000000000000000000 ) ) ;
#112 = PERSON_AND_ORGANIZATION_ROLE ( 'classification_officer' ) ;
#113 = DIRECTION ( 'NONE',  ( 1.000000000000000000, 0.0000000000000000000, 0.0000000000000000000 ) ) ;
#114 = CARTESIAN_POINT ( 'NONE',  ( 1.040461438975253740E-13, 0.7249999999999963141, 29.80000000000000071 ) ) ;
#115 = PRODUCT_DEFINITION_SHAPE ( 'NONE', 'NONE',  #87 ) ;
#116 = FACE_OUTER_BOUND ( 'NONE', #103, .T. ) ;
#117 = CARTESIAN_POINT ( 'NONE',  ( 2.793185071074506684E-14, -9.797174393178825657E-16, 8.000000000000000000 ) ) ;
#118 = VERTEX_POINT ( 'NONE', #67 ) ;
#119 = DIRECTION ( 'NONE',  ( -3.491481338843133355E-15, 1.224646799147353207E-16, -1.000000000000000000 ) ) ;
#120 = DATE_AND_TIME ( #187, #126 ) ;
#121 = DIRECTION ( 'NONE',  ( -3.491481338843133355E-15, 1.224646799147353207E-16, -1.000000000000000000 ) ) ;
#122 = PRODUCT_DEFINITION_FORMATION_WITH_SPECIFIED_SOURCE ( 'ANY', '', #144, .NOT_KNOWN. ) ;
#123 = EDGE_LOOP ( 'NONE', ( #62 ) ) ;
#124 = PERSON_AND_ORGANIZATION ( #25, #176 ) ;
#125 = APPROVAL_PERSON_ORGANIZATION ( #156, #190, #58 ) ;
#126 = LOCAL_TIME ( 10, 24, 36.00000000000000000, #77 ) ;
#127 = AXIS2_PLACEMENT_3D ( 'NONE', #194, #119, #200 ) ;
#128 = VERTEX_POINT ( 'NONE', #5 ) ;
#129 = CARTESIAN_POINT ( 'NONE',  ( 2.793185071074506684E-14, 0.7249999999999963141, 8.000000000000000000 ) ) ;
#130 = ORIENTED_EDGE ( 'NONE', *, *, #1, .T. ) ;
#131 = CALENDAR_DATE ( 2021, 6, 10 ) ;
#132 = DIRECTION ( 'NONE',  ( 3.491481338843133355E-15, -1.224646799147353207E-16, 1.000000000000000000 ) ) ;
#133 = ADVANCED_FACE ( 'NONE', ( #24, #198 ), #32, .T. ) ;
#134 = DIRECTION ( 'NONE',  ( 4.275831445896958607E-31, 1.000000000000000000, 1.224646799147353207E-16 ) ) ;
#135 = PERSON_AND_ORGANIZATION_ROLE ( 'design_supplier' ) ;
#136 = CARTESIAN_POINT ( 'NONE',  ( 2.793185071074506684E-14, 5.436629212149198933E-33, 8.000000000000000000 ) ) ;
#137 = CC_DESIGN_APPROVAL ( #190, ( #36 ) ) ;
#138 = COORDINATED_UNIVERSAL_TIME_OFFSET ( 1, 0, .AHEAD. ) ;
#139 = CC_DESIGN_PERSON_AND_ORGANIZATION_ASSIGNMENT ( #165, #26, ( #87 ) ) ;
#140 = CC_DESIGN_PERSON_AND_ORGANIZATION_ASSIGNMENT ( #199, #135, ( #122 ) ) ;
#141 = FACE_OUTER_BOUND ( 'NONE', #123, .T. ) ;
#142 = APPROVAL ( #63, 'UNSPECIFIED' ) ;
#143 = ADVANCED_BREP_SHAPE_REPRESENTATION ( '218', ( #166, #99, #61 ), #81 ) ;
#144 = PRODUCT ( '218', '218', '', ( #40 ) ) ;
#145 = LOCAL_TIME ( 10, 24, 36.00000000000000000, #60 ) ;
#146 = CARTESIAN_POINT ( 'NONE',  ( 1.047444401652940007E-13, 0.5249999999999962474, 30.00000000000000000 ) ) ;
#147 = DIRECTION ( 'NONE',  ( -3.491481338843133355E-15, 1.224646799147353207E-16, -1.000000000000000000 ) ) ;
#148 = DIRECTION ( 'NONE',  ( 3.491481338843133355E-15, -1.224646799147353207E-16, 1.000000000000000000 ) ) ;
#149 = APPLICATION_PROTOCOL_DEFINITION ( 'international standard', 'config_control_design', 1994, #78 ) ;
#150 = CIRCLE ( 'NONE', #157, 0.7249999999999963141 ) ;
#151 = FACE_OUTER_BOUND ( 'NONE', #95, .T. ) ;
#152 = PRODUCT_RELATED_PRODUCT_CATEGORY ( 'detail', '', ( #144 ) ) ;
#153 = DIRECTION ( 'NONE',  ( 3.491481338843133355E-15, -1.224646799147353207E-16, 1.000000000000000000 ) ) ;
#154 = ORIENTED_EDGE ( 'NONE', *, *, #64, .F. ) ;
#155 = UNCERTAINTY_MEASURE_WITH_UNIT (LENGTH_MEASURE( 1.000000000000000082E-05 ), #102, 'distance_accuracy_value', 'NONE');
#156 = PERSON_AND_ORGANIZATION ( #25, #176 ) ;
#157 = AXIS2_PLACEMENT_3D ( 'NONE', #41, #185, #55 ) ;
#158 = LOCAL_TIME ( 10, 24, 36.00000000000000000, #11 ) ;
#159 = ADVANCED_FACE ( 'NONE', ( #141 ), #160, .F. ) ;
#160 = PLANE ( 'NONE',  #192 ) ;
#161 = PERSON_AND_ORGANIZATION ( #25, #176 ) ;
#162 = AXIS2_PLACEMENT_3D ( 'NONE', #117, #180, #164 ) ;
#163 = CYLINDRICAL_SURFACE ( 'NONE', #91, 0.7249999999999966471 ) ;
#164 = DIRECTION ( 'NONE',  ( 0.0000000000000000000, 1.000000000000000000, 0.0000000000000000000 ) ) ;
#165 = PERSON_AND_ORGANIZATION ( #25, #176 ) ;
#166 = MANIFOLD_SOLID_BREP ( 'Corps-Déplacer/Copier1[1]', #172 ) ;
#167 = CONICAL_SURFACE ( 'NONE', #183, 0.7249999999999963141, 1.047197551196592746 ) ;
#168 = DIRECTION ( 'NONE',  ( 0.0000000000000000000, 1.000000000000000000, 0.0000000000000000000 ) ) ;
#169 = PERSON_AND_ORGANIZATION_ROLE ( 'creator' ) ;
#170 = APPROVAL_ROLE ( '' ) ;
#171 = ADVANCED_FACE ( 'NONE', ( #6, #151 ), #163, .T. ) ;
#172 = CLOSED_SHELL ( 'NONE', ( #177, #100, #133, #159 ) ) ;
#173 = CIRCLE ( 'NONE', #162, 0.7249999999999972022 ) ;
#174 = APPROVAL_PERSON_ORGANIZATION ( #9, #189, #50 ) ;
#175 = DIRECTION ( 'NONE',  ( 0.0000000000000000000, 1.000000000000000000, 0.0000000000000000000 ) ) ;
#176 = ORGANIZATION ( 'UNSPECIFIED', 'UNSPECIFIED', '' ) ;
#177 = ADVANCED_FACE ( 'NONE', ( #116 ), #71, .F. ) ;
#178 = CALENDAR_DATE ( 2021, 6, 10 ) ;
#179 = FACE_OUTER_BOUND ( 'NONE', #39, .T. ) ;
#180 = DIRECTION ( 'NONE',  ( -3.491481338843133355E-15, 1.224646799147353207E-16, -1.000000000000000000 ) ) ;
#181 = VERTEX_POINT ( 'NONE', #146 ) ;
#182 = CALENDAR_DATE ( 2021, 6, 10 ) ;
#183 = AXIS2_PLACEMENT_3D ( 'NONE', #29, #148, #10 ) ;
#184 = AXIS2_PLACEMENT_3D ( 'NONE', #65, #132, #4 ) ;
#185 = DIRECTION ( 'NONE',  ( -3.491481338843133355E-15, 1.224646799147353207E-16, -1.000000000000000000 ) ) ;
#186 = DIRECTION ( 'NONE',  ( -4.275831445896958607E-31, -1.000000000000000000, -1.224646799147353207E-16 ) ) ;
#187 = CALENDAR_DATE ( 2021, 6, 10 ) ;
#188 = DATE_AND_TIME ( #182, #145 ) ;
#189 = APPROVAL ( #69, 'UNSPECIFIED' ) ;
#190 = APPROVAL ( #97, 'UNSPECIFIED' ) ;
#191 = DESIGN_CONTEXT ( 'detailed design', #78, 'design' ) ;
#192 = AXIS2_PLACEMENT_3D ( 'NONE', #51, #37, #66 ) ;
#193 = CC_DESIGN_DATE_AND_TIME_ASSIGNMENT ( #47, #31, ( #36 ) ) ;
#194 = CARTESIAN_POINT ( 'NONE',  ( 1.047444401652940007E-13, -3.673940397442059178E-15, 30.00000000000000000 ) ) ;
#195 =( NAMED_UNIT ( * ) SI_UNIT ( $, .STERADIAN. ) SOLID_ANGLE_UNIT ( ) );
#196 = EDGE_LOOP ( 'NONE', ( #90 ) ) ;
#197 = DATE_AND_TIME ( #131, #98 ) ;
#198 = FACE_BOUND ( 'NONE', #27, .T. ) ;
#199 = PERSON_AND_ORGANIZATION ( #25, #176 ) ;
#200 = DIRECTION ( 'NONE',  ( 0.0000000000000000000, 1.000000000000000000, 0.0000000000000000000 ) ) ;
#201 = CALENDAR_DATE ( 2021, 6, 10 ) ;
#202 = EDGE_LOOP ( 'NONE', ( #12 ) ) ;
#203 = PERSON_AND_ORGANIZATION ( #25, #176 ) ;
ENDSEC;
END-ISO-10303-21;
