ISO-10303-21;
HEADER;
FILE_DESCRIPTION (( 'STEP AP203' ),
    '1' );
FILE_NAME ('21766.step',
    '2021-10-07T13:46:27',
    ( '' ),
    ( '' ),
    'SwSTEP 2.0',
    'SolidWorks 2019',
    '' );
FILE_SCHEMA (( 'CONFIG_CONTROL_DESIGN' ));
ENDSEC;

DATA;
#1 = EDGE_CURVE ( 'NONE', #139, #139, #161, .T. ) ;
#2 = LOCAL_TIME ( 15, 46, 27.00000000000000000, #199 ) ;
#3 = AXIS2_PLACEMENT_3D ( 'NONE', #53, #152, #32 ) ;
#4 = PERSON_AND_ORGANIZATION ( #196, #158 ) ;
#5 = DIRECTION ( 'NONE',  ( 4.275831445896958607E-31, 1.000000000000000000, 1.224646799147353207E-16 ) ) ;
#6 = DATE_AND_TIME ( #25, #2 ) ;
#7 = VERTEX_POINT ( 'NONE', #128 ) ;
#8 = ORIENTED_EDGE ( 'NONE', *, *, #178, .F. ) ;
#9 = CALENDAR_DATE ( 2021, 7, 10 ) ;
#10 = APPROVAL_PERSON_ORGANIZATION ( #183, #162, #13 ) ;
#11 = CARTESIAN_POINT ( 'NONE',  ( 1.047444401652940007E-13, -3.673940397442059178E-15, 30.00000000000000000 ) ) ;
#12 = MANIFOLD_SOLID_BREP ( 'Corps-Déplacer/Copier1[2]', #22 ) ;
#13 = APPROVAL_ROLE ( '' ) ;
#14 = CARTESIAN_POINT ( 'NONE',  ( 7.132838371173601833E-16, -2.501862915007729589E-17, 0.2042926104693715827 ) ) ;
#15 = EDGE_LOOP ( 'NONE', ( #49 ) ) ;
#16 = DIRECTION ( 'NONE',  ( 0.0000000000000000000, 1.000000000000000000, 0.0000000000000000000 ) ) ;
#17 = ORIENTED_EDGE ( 'NONE', *, *, #160, .F. ) ;
#18 = LOCAL_TIME ( 15, 46, 27.00000000000000000, #76 ) ;
#19 = EDGE_LOOP ( 'NONE', ( #111 ) ) ;
#20 = DIRECTION ( 'NONE',  ( -4.275831445896958607E-31, -1.000000000000000000, -1.224646799147353207E-16 ) ) ;
#21 = CC_DESIGN_PERSON_AND_ORGANIZATION_ASSIGNMENT ( #4, #74, ( #195 ) ) ;
#22 = CLOSED_SHELL ( 'NONE', ( #36, #104, #23 ) ) ;
#23 = ADVANCED_FACE ( 'NONE', ( #206 ), #122, .T. ) ;
#24 =( GEOMETRIC_REPRESENTATION_CONTEXT ( 3 ) GLOBAL_UNCERTAINTY_ASSIGNED_CONTEXT ( ( #94 ) ) GLOBAL_UNIT_ASSIGNED_CONTEXT ( ( #198, #89, #208 ) ) REPRESENTATION_CONTEXT ( 'NONE', 'WORKASPACE' ) );
#25 = CALENDAR_DATE ( 2021, 7, 10 ) ;
#26 = FACE_OUTER_BOUND ( 'NONE', #173, .T. ) ;
#27 = CC_DESIGN_PERSON_AND_ORGANIZATION_ASSIGNMENT ( #47, #127, ( #146 ) ) ;
#28 = DATE_AND_TIME ( #9, #182 ) ;
#29 = DIRECTION ( 'NONE',  ( 0.0000000000000000000, 1.000000000000000000, 0.0000000000000000000 ) ) ;
#30 = DATE_AND_TIME ( #166, #223 ) ;
#31 = FACE_OUTER_BOUND ( 'NONE', #19, .T. ) ;
#32 = DIRECTION ( 'NONE',  ( 0.0000000000000000000, 1.000000000000000000, 0.0000000000000000000 ) ) ;
#33 = EDGE_LOOP ( 'NONE', ( #69 ) ) ;
#34 = CALENDAR_DATE ( 2021, 7, 10 ) ;
#35 = FACE_OUTER_BOUND ( 'NONE', #172, .T. ) ;
#36 = ADVANCED_FACE ( 'NONE', ( #92 ), #55, .T. ) ;
#37 = ORIENTED_EDGE ( 'NONE', *, *, #178, .T. ) ;
#38 = CONICAL_SURFACE ( 'NONE', #168, 0.4999999999999970579, 0.2617993877991432461 ) ;
#39 = CARTESIAN_POINT ( 'NONE',  ( 7.132838371173601833E-16, -2.501862915007729589E-17, 0.2042926104693715827 ) ) ;
#40 = PRODUCT_RELATED_PRODUCT_CATEGORY ( 'detail', '', ( #195 ) ) ;
#41 = DIRECTION ( 'NONE',  ( 0.0000000000000000000, 0.0000000000000000000, 1.000000000000000000 ) ) ;
#42 = DATE_AND_TIME ( #136, #18 ) ;
#43 = DIRECTION ( 'NONE',  ( -3.491481338843133355E-15, 1.224646799147353207E-16, -1.000000000000000000 ) ) ;
#44 = PERSON_AND_ORGANIZATION_ROLE ( 'creator' ) ;
#45 = FACE_OUTER_BOUND ( 'NONE', #150, .T. ) ;
#46 = DIRECTION ( 'NONE',  ( 0.0000000000000000000, 1.000000000000000000, 0.0000000000000000000 ) ) ;
#47 = PERSON_AND_ORGANIZATION ( #196, #158 ) ;
#48 = DIRECTION ( 'NONE',  ( -4.275831445896958607E-31, -1.000000000000000000, -1.224646799147353207E-16 ) ) ;
#49 = ORIENTED_EDGE ( 'NONE', *, *, #1, .F. ) ;
#50 = AXIS2_PLACEMENT_3D ( 'NONE', #147, #86, #171 ) ;
#51 = APPROVAL_DATE_TIME ( #109, #73 ) ;
#52 = CARTESIAN_POINT ( 'NONE',  ( 0.0000000000000000000, 0.0000000000000000000, 0.0000000000000000000 ) ) ;
#53 = CARTESIAN_POINT ( 'NONE',  ( 1.043952920314096810E-13, -3.661693929450586610E-15, 29.89999999999999858 ) ) ;
#54 = CARTESIAN_POINT ( 'NONE',  ( 1.955229549752154679E-14, 2.549591630525137201E-33, 5.599999999999999645 ) ) ;
#55 = CONICAL_SURFACE ( 'NONE', #125, 0.3399999999999979705, 1.029744258676649649 ) ;
#56 = CIRCLE ( 'NONE', #126, 0.4999999999999970579 ) ;
#57 = EDGE_CURVE ( 'NONE', #141, #141, #207, .T. ) ;
#58 = CC_DESIGN_APPROVAL ( #162, ( #107 ) ) ;
#59 = EDGE_CURVE ( 'NONE', #204, #204, #209, .T. ) ;
#60 = PERSON_AND_ORGANIZATION ( #196, #158 ) ;
#61 = SHAPE_DEFINITION_REPRESENTATION ( #175, #81 ) ;
#62 = CARTESIAN_POINT ( 'NONE',  ( 2.163715721756016726E-14, 0.4999999999999963363, 6.197128129211029623 ) ) ;
#63 = AXIS2_PLACEMENT_3D ( 'NONE', #137, #200, #46 ) ;
#64 = AXIS2_PLACEMENT_3D ( 'NONE', #164, #108, #154 ) ;
#65 = APPROVAL_DATE_TIME ( #30, #162 ) ;
#66 = DIRECTION ( 'NONE',  ( -3.491481338843133355E-15, 1.224646799147353207E-16, -1.000000000000000000 ) ) ;
#67 = EDGE_LOOP ( 'NONE', ( #87 ) ) ;
#68 = CARTESIAN_POINT ( 'NONE',  ( 2.163715721756016726E-14, -7.589293127344312322E-16, 6.197128129211029623 ) ) ;
#69 = ORIENTED_EDGE ( 'NONE', *, *, #59, .T. ) ;
#70 = CARTESIAN_POINT ( 'NONE',  ( 7.132838371173603805E-16, 0.3399999999999979705, 0.2042926104693716383 ) ) ;
#71 = CYLINDRICAL_SURFACE ( 'NONE', #143, 0.3399999999999983036 ) ;
#72 = AXIS2_PLACEMENT_3D ( 'NONE', #11, #66, #16 ) ;
#73 = APPROVAL ( #120, 'UNSPECIFIED' ) ;
#74 = PERSON_AND_ORGANIZATION_ROLE ( 'design_owner' ) ;
#75 = FACE_BOUND ( 'NONE', #103, .T. ) ;
#76 = COORDINATED_UNIVERSAL_TIME_OFFSET ( 1, 0, .AHEAD. ) ;
#77 = DIRECTION ( 'NONE',  ( -5.664499836433080474E-31, -1.000000000000000000, -1.594414959537516048E-16 ) ) ;
#78 = CC_DESIGN_APPROVAL ( #115, ( #146 ) ) ;
#79 = CC_DESIGN_PERSON_AND_ORGANIZATION_ASSIGNMENT ( #123, #85, ( #107 ) ) ;
#80 = PLANE ( 'NONE',  #220 ) ;
#81 = ADVANCED_BREP_SHAPE_REPRESENTATION ( '21766', ( #163, #12, #193 ), #24 ) ;
#82 = APPROVAL_STATUS ( 'not_yet_approved' ) ;
#83 = CARTESIAN_POINT ( 'NONE',  ( 1.047444401652940007E-13, 2.999519565323660135E-33, 30.00000000000000000 ) ) ;
#84 = APPLICATION_CONTEXT ( 'configuration controlled 3d designs of mechanical parts and assemblies' ) ;
#85 = PERSON_AND_ORGANIZATION_ROLE ( 'design_supplier' ) ;
#86 = DIRECTION ( 'NONE',  ( -3.491481338843133355E-15, 1.224646799147353207E-16, -1.000000000000000000 ) ) ;
#87 = ORIENTED_EDGE ( 'NONE', *, *, #57, .T. ) ;
#88 = LOCAL_TIME ( 15, 46, 27.00000000000000000, #181 ) ;
#89 =( NAMED_UNIT ( * ) PLANE_ANGLE_UNIT ( ) SI_UNIT ( $, .RADIAN. ) );
#90 = ORIENTED_EDGE ( 'NONE', *, *, #57, .F. ) ;
#91 = ADVANCED_FACE ( 'NONE', ( #156 ), #205, .F. ) ;
#92 = FACE_OUTER_BOUND ( 'NONE', #67, .T. ) ;
#93 = APPLICATION_CONTEXT ( 'configuration controlled 3d designs of mechanical parts and assemblies' ) ;
#94 = UNCERTAINTY_MEASURE_WITH_UNIT (LENGTH_MEASURE( 1.000000000000000082E-05 ), #198, 'distance_accuracy_value', 'NONE');
#95 = CLOSED_SHELL ( 'NONE', ( #138, #190, #210, #97, #91 ) ) ;
#96 = CARTESIAN_POINT ( 'NONE',  ( 0.0000000000000000000, 0.0000000000000000000, 0.0000000000000000000 ) ) ;
#97 = ADVANCED_FACE ( 'NONE', ( #31, #106 ), #133, .T. ) ;
#98 = CIRCLE ( 'NONE', #135, 0.3399999999999985811 ) ;
#99 = COORDINATED_UNIVERSAL_TIME_OFFSET ( 1, 0, .AHEAD. ) ;
#100 = CYLINDRICAL_SURFACE ( 'NONE', #64, 0.4999999999999985012 ) ;
#101 = APPROVAL_ROLE ( '' ) ;
#102 = FACE_OUTER_BOUND ( 'NONE', #153, .T. ) ;
#103 = EDGE_LOOP ( 'NONE', ( #17 ) ) ;
#104 = ADVANCED_FACE ( 'NONE', ( #169, #35 ), #71, .T. ) ;
#105 = PERSON_AND_ORGANIZATION_ROLE ( 'classification_officer' ) ;
#106 = FACE_BOUND ( 'NONE', #33, .T. ) ;
#107 = PRODUCT_DEFINITION_FORMATION_WITH_SPECIFIED_SOURCE ( 'ANY', '', #195, .NOT_KNOWN. ) ;
#108 = DIRECTION ( 'NONE',  ( -3.491481338843133355E-15, 1.224646799147353207E-16, -1.000000000000000000 ) ) ;
#109 = DATE_AND_TIME ( #34, #88 ) ;
#110 = CARTESIAN_POINT ( 'NONE',  ( 1.043952920314096810E-13, 0.4999999999999963363, 29.89999999999999858 ) ) ;
#111 = ORIENTED_EDGE ( 'NONE', *, *, #177, .F. ) ;
#112 = DIRECTION ( 'NONE',  ( 3.491481338843133355E-15, -1.224646799147353207E-16, 1.000000000000000000 ) ) ;
#113 = DESIGN_CONTEXT ( 'detailed design', #84, 'design' ) ;
#114 = APPLICATION_PROTOCOL_DEFINITION ( 'international standard', 'config_control_design', 1994, #93 ) ;
#115 = APPROVAL ( #203, 'UNSPECIFIED' ) ;
#116 = AXIS2_PLACEMENT_3D ( 'NONE', #14, #43, #185 ) ;
#117 = APPROVAL_DATE_TIME ( #42, #115 ) ;
#118 = DIRECTION ( 'NONE',  ( 0.0000000000000000000, 1.000000000000000000, 0.0000000000000000000 ) ) ;
#119 = CC_DESIGN_DATE_AND_TIME_ASSIGNMENT ( #28, #148, ( #191 ) ) ;
#120 = APPROVAL_STATUS ( 'not_yet_approved' ) ;
#121 = DIRECTION ( 'NONE',  ( 3.491481338843133355E-15, -1.224646799147353207E-16, 1.000000000000000000 ) ) ;
#122 = PLANE ( 'NONE',  #144 ) ;
#123 = PERSON_AND_ORGANIZATION ( #196, #158 ) ;
#124 = DIRECTION ( 'NONE',  ( -3.491481338843133355E-15, 1.224646799147353207E-16, -1.000000000000000000 ) ) ;
#125 = AXIS2_PLACEMENT_3D ( 'NONE', #39, #112, #77 ) ;
#126 = AXIS2_PLACEMENT_3D ( 'NONE', #68, #215, #118 ) ;
#127 = PERSON_AND_ORGANIZATION_ROLE ( 'creator' ) ;
#128 = CARTESIAN_POINT ( 'NONE',  ( 1.955229549752154679E-14, 0.3399999999999978595, 5.599999999999999645 ) ) ;
#129 = EDGE_LOOP ( 'NONE', ( #222 ) ) ;
#130 = DIRECTION ( 'NONE',  ( 0.0000000000000000000, -1.000000000000000000, 0.0000000000000000000 ) ) ;
#131 = ORIENTED_EDGE ( 'NONE', *, *, #177, .T. ) ;
#132 = CC_DESIGN_PERSON_AND_ORGANIZATION_ASSIGNMENT ( #151, #44, ( #107 ) ) ;
#133 = CONICAL_SURFACE ( 'NONE', #72, 0.4000000000000000222, 0.7853981633974512766 ) ;
#134 = CC_DESIGN_DATE_AND_TIME_ASSIGNMENT ( #6, #214, ( #146 ) ) ;
#135 = AXIS2_PLACEMENT_3D ( 'NONE', #202, #186, #29 ) ;
#136 = CALENDAR_DATE ( 2021, 7, 10 ) ;
#137 = CARTESIAN_POINT ( 'NONE',  ( 1.955229549752154679E-14, -6.858022075225177566E-16, 5.599999999999999645 ) ) ;
#138 = ADVANCED_FACE ( 'NONE', ( #45 ), #80, .F. ) ;
#139 = VERTEX_POINT ( 'NONE', #211 ) ;
#140 = EDGE_LOOP ( 'NONE', ( #90 ) ) ;
#141 = VERTEX_POINT ( 'NONE', #70 ) ;
#142 = DIRECTION ( 'NONE',  ( 3.491481338843133355E-15, -1.224646799147353207E-16, 1.000000000000000000 ) ) ;
#143 = AXIS2_PLACEMENT_3D ( 'NONE', #52, #124, #219 ) ;
#144 = AXIS2_PLACEMENT_3D ( 'NONE', #54, #159, #20 ) ;
#145 = APPLICATION_PROTOCOL_DEFINITION ( 'international standard', 'config_control_design', 1994, #84 ) ;
#146 = PRODUCT_DEFINITION ( 'UNKNOWN', '', #107, #113 ) ;
#147 = CARTESIAN_POINT ( 'NONE',  ( 1.047444401652940007E-13, -3.673940397442059178E-15, 30.00000000000000000 ) ) ;
#148 = DATE_TIME_ROLE ( 'classification_date' ) ;
#149 = VERTEX_POINT ( 'NONE', #62 ) ;
#150 = EDGE_LOOP ( 'NONE', ( #216 ) ) ;
#151 = PERSON_AND_ORGANIZATION ( #196, #158 ) ;
#152 = DIRECTION ( 'NONE',  ( -3.491481338843133355E-15, 1.224646799147353207E-16, -1.000000000000000000 ) ) ;
#153 = EDGE_LOOP ( 'NONE', ( #131 ) ) ;
#154 = DIRECTION ( 'NONE',  ( 4.275831445896959482E-31, 1.000000000000000000, 1.224646799147353207E-16 ) ) ;
#155 = SECURITY_CLASSIFICATION_LEVEL ( 'unclassified' ) ;
#156 = FACE_OUTER_BOUND ( 'NONE', #129, .T. ) ;
#157 = EDGE_LOOP ( 'NONE', ( #37 ) ) ;
#158 = ORGANIZATION ( 'UNSPECIFIED', 'UNSPECIFIED', '' ) ;
#159 = DIRECTION ( 'NONE',  ( 3.491481338843133355E-15, -1.224646799147353207E-16, 1.000000000000000000 ) ) ;
#160 = EDGE_CURVE ( 'NONE', #7, #7, #98, .T. ) ;
#161 = CIRCLE ( 'NONE', #63, 0.3399999999999985811 ) ;
#162 = APPROVAL ( #82, 'UNSPECIFIED' ) ;
#163 = MANIFOLD_SOLID_BREP ( 'Corps-Déplacer/Copier1[1]', #95 ) ;
#164 = CARTESIAN_POINT ( 'NONE',  ( 0.0000000000000000000, 0.0000000000000000000, 0.0000000000000000000 ) ) ;
#165 = CARTESIAN_POINT ( 'NONE',  ( 1.047444401652940007E-13, 0.3999999999999963585, 30.00000000000000000 ) ) ;
#166 = CALENDAR_DATE ( 2021, 7, 10 ) ;
#167 = FACE_OUTER_BOUND ( 'NONE', #157, .T. ) ;
#168 = AXIS2_PLACEMENT_3D ( 'NONE', #218, #121, #130 ) ;
#169 = FACE_OUTER_BOUND ( 'NONE', #140, .T. ) ;
#170 = PERSON_AND_ORGANIZATION ( #196, #158 ) ;
#171 = DIRECTION ( 'NONE',  ( 0.0000000000000000000, 1.000000000000000000, 0.0000000000000000000 ) ) ;
#172 = EDGE_LOOP ( 'NONE', ( #187 ) ) ;
#173 = EDGE_LOOP ( 'NONE', ( #8 ) ) ;
#174 = APPROVAL_PERSON_ORGANIZATION ( #188, #115, #201 ) ;
#175 = PRODUCT_DEFINITION_SHAPE ( 'NONE', 'NONE',  #146 ) ;
#176 = AXIS2_PLACEMENT_3D ( 'NONE', #83, #213, #5 ) ;
#177 = EDGE_CURVE ( 'NONE', #189, #189, #221, .T. ) ;
#178 = EDGE_CURVE ( 'NONE', #149, #149, #56, .T. ) ;
#179 = CC_DESIGN_APPROVAL ( #73, ( #191 ) ) ;
#180 = DIRECTION ( 'NONE',  ( 1.000000000000000000, 0.0000000000000000000, 0.0000000000000000000 ) ) ;
#181 = COORDINATED_UNIVERSAL_TIME_OFFSET ( 1, 0, .AHEAD. ) ;
#182 = LOCAL_TIME ( 15, 46, 27.00000000000000000, #99 ) ;
#183 = PERSON_AND_ORGANIZATION ( #196, #158 ) ;
#184 = CARTESIAN_POINT ( 'NONE',  ( 1.955229549752154679E-14, 2.549591630525137201E-33, 5.599999999999999645 ) ) ;
#185 = DIRECTION ( 'NONE',  ( 5.664499836433080474E-31, 1.000000000000000000, 1.594414959537516048E-16 ) ) ;
#186 = DIRECTION ( 'NONE',  ( -3.491481338843133355E-15, 1.224646799147353207E-16, -1.000000000000000000 ) ) ;
#187 = ORIENTED_EDGE ( 'NONE', *, *, #1, .T. ) ;
#188 = PERSON_AND_ORGANIZATION ( #196, #158 ) ;
#189 = VERTEX_POINT ( 'NONE', #110 ) ;
#190 = ADVANCED_FACE ( 'NONE', ( #75, #167 ), #38, .T. ) ;
#191 = SECURITY_CLASSIFICATION ( '', '', #155 ) ;
#192 = CC_DESIGN_PERSON_AND_ORGANIZATION_ASSIGNMENT ( #170, #105, ( #191 ) ) ;
#193 = AXIS2_PLACEMENT_3D ( 'NONE', #96, #41, #180 ) ;
#194 = MECHANICAL_CONTEXT ( 'NONE', #93, 'mechanical' ) ;
#195 = PRODUCT ( '21766', '21766', '', ( #194 ) ) ;
#196 = PERSON ( 'UNSPECIFIED', 'UNSPECIFIED', 'UNSPECIFIED', ('UNSPECIFIED'), ('UNSPECIFIED'), ('UNSPECIFIED') ) ;
#197 = CC_DESIGN_SECURITY_CLASSIFICATION ( #191, ( #107 ) ) ;
#198 =( LENGTH_UNIT ( ) NAMED_UNIT ( * ) SI_UNIT ( .MILLI., .METRE. ) );
#199 = COORDINATED_UNIVERSAL_TIME_OFFSET ( 1, 0, .AHEAD. ) ;
#200 = DIRECTION ( 'NONE',  ( -3.491481338843133355E-15, 1.224646799147353207E-16, -1.000000000000000000 ) ) ;
#201 = APPROVAL_ROLE ( '' ) ;
#202 = CARTESIAN_POINT ( 'NONE',  ( 1.955229549752154679E-14, -6.858022075225177566E-16, 5.599999999999999645 ) ) ;
#203 = APPROVAL_STATUS ( 'not_yet_approved' ) ;
#204 = VERTEX_POINT ( 'NONE', #165 ) ;
#205 = PLANE ( 'NONE',  #176 ) ;
#206 = FACE_OUTER_BOUND ( 'NONE', #15, .T. ) ;
#207 = CIRCLE ( 'NONE', #116, 0.3399999999999979705 ) ;
#208 =( NAMED_UNIT ( * ) SI_UNIT ( $, .STERADIAN. ) SOLID_ANGLE_UNIT ( ) );
#209 = CIRCLE ( 'NONE', #50, 0.4000000000000000222 ) ;
#210 = ADVANCED_FACE ( 'NONE', ( #26, #102 ), #100, .T. ) ;
#211 = CARTESIAN_POINT ( 'NONE',  ( 1.955229549752154679E-14, 0.3399999999999978595, 5.599999999999999645 ) ) ;
#212 = APPROVAL_PERSON_ORGANIZATION ( #60, #73, #101 ) ;
#213 = DIRECTION ( 'NONE',  ( -3.491481338843133355E-15, 1.224646799147353207E-16, -1.000000000000000000 ) ) ;
#214 = DATE_TIME_ROLE ( 'creation_date' ) ;
#215 = DIRECTION ( 'NONE',  ( -3.491481338843133355E-15, 1.224646799147353207E-16, -1.000000000000000000 ) ) ;
#216 = ORIENTED_EDGE ( 'NONE', *, *, #160, .T. ) ;
#217 = COORDINATED_UNIVERSAL_TIME_OFFSET ( 1, 0, .AHEAD. ) ;
#218 = CARTESIAN_POINT ( 'NONE',  ( 2.163715721756016726E-14, -7.589293127344312322E-16, 6.197128129211029623 ) ) ;
#219 = DIRECTION ( 'NONE',  ( 4.275831445896958607E-31, 1.000000000000000000, 1.224646799147353207E-16 ) ) ;
#220 = AXIS2_PLACEMENT_3D ( 'NONE', #184, #142, #48 ) ;
#221 = CIRCLE ( 'NONE', #3, 0.5000000000000000000 ) ;
#222 = ORIENTED_EDGE ( 'NONE', *, *, #59, .F. ) ;
#223 = LOCAL_TIME ( 15, 46, 27.00000000000000000, #217 ) ;
ENDSEC;
END-ISO-10303-21;
