ISO-10303-21;
HEADER;
FILE_DESCRIPTION (( 'STEP AP203' ),
    '1' );
FILE_NAME ('217.step',
    '2021-10-06T08:24:35',
    ( '' ),
    ( '' ),
    'SwSTEP 2.0',
    'SolidWorks 2019',
    '' );
FILE_SCHEMA (( 'CONFIG_CONTROL_DESIGN' ));
ENDSEC;

DATA;
#1 = CARTESIAN_POINT ( 'NONE',  ( 2.793185071074506684E-14, 0.6999999999999962919, 8.000000000000000000 ) ) ;
#2 = AXIS2_PLACEMENT_3D ( 'NONE', #152, #53, #14 ) ;
#3 = CC_DESIGN_SECURITY_CLASSIFICATION ( #114, ( #130 ) ) ;
#4 = ADVANCED_FACE ( 'NONE', ( #78, #168 ), #140, .T. ) ;
#5 = APPROVAL_PERSON_ORGANIZATION ( #193, #192, #56 ) ;
#6 = EDGE_LOOP ( 'NONE', ( #41 ) ) ;
#7 = LOCAL_TIME ( 10, 24, 35.00000000000000000, #148 ) ;
#8 = PERSON_AND_ORGANIZATION_ROLE ( 'creator' ) ;
#9 = UNCERTAINTY_MEASURE_WITH_UNIT (LENGTH_MEASURE( 1.000000000000000082E-05 ), #159, 'distance_accuracy_value', 'NONE');
#10 = ORIENTED_EDGE ( 'NONE', *, *, #116, .F. ) ;
#11 = COORDINATED_UNIVERSAL_TIME_OFFSET ( 1, 0, .AHEAD. ) ;
#12 = PERSON_AND_ORGANIZATION ( #182, #80 ) ;
#13 = FACE_OUTER_BOUND ( 'NONE', #6, .T. ) ;
#14 = DIRECTION ( 'NONE',  ( 4.275831445896958607E-31, 1.000000000000000000, 1.224646799147353207E-16 ) ) ;
#15 = CIRCLE ( 'NONE', #43, 0.6999999999999999556 ) ;
#16 = DIRECTION ( 'NONE',  ( 0.0000000000000000000, 1.000000000000000000, 0.0000000000000000000 ) ) ;
#17 = DIRECTION ( 'NONE',  ( -3.491481338843133355E-15, 1.224646799147353207E-16, -1.000000000000000000 ) ) ;
#18 = DIRECTION ( 'NONE',  ( 3.491481338843133355E-15, -1.224646799147353207E-16, 1.000000000000000000 ) ) ;
#19 = AXIS2_PLACEMENT_3D ( 'NONE', #155, #187, #171 ) ;
#20 = ADVANCED_FACE ( 'NONE', ( #113 ), #147, .T. ) ;
#21 = APPROVAL_PERSON_ORGANIZATION ( #12, #94, #102 ) ;
#22 = MANIFOLD_SOLID_BREP ( 'Corps-Déplacer/Copier1[2]', #118 ) ;
#23 = ADVANCED_FACE ( 'NONE', ( #61, #126 ), #108, .T. ) ;
#24 = LOCAL_TIME ( 10, 24, 35.00000000000000000, #122 ) ;
#25 = DATE_TIME_ROLE ( 'creation_date' ) ;
#26 = EDGE_CURVE ( 'NONE', #52, #52, #167, .T. ) ;
#27 = ORIENTED_EDGE ( 'NONE', *, *, #62, .T. ) ;
#28 = APPROVAL_ROLE ( '' ) ;
#29 = APPLICATION_PROTOCOL_DEFINITION ( 'international standard', 'config_control_design', 1994, #117 ) ;
#30 = ADVANCED_BREP_SHAPE_REPRESENTATION ( '217', ( #87, #22, #97 ), #184 ) ;
#31 = CARTESIAN_POINT ( 'NONE',  ( 0.0000000000000000000, 0.0000000000000000000, 0.0000000000000000000 ) ) ;
#32 = APPLICATION_CONTEXT ( 'configuration controlled 3d designs of mechanical parts and assemblies' ) ;
#33 = DESIGN_CONTEXT ( 'detailed design', #32, 'design' ) ;
#34 = CARTESIAN_POINT ( 'NONE',  ( 1.411065383596155275E-15, -4.949351114049596253E-17, 0.4041451884327405542 ) ) ;
#35 = CC_DESIGN_DATE_AND_TIME_ASSIGNMENT ( #165, #25, ( #69 ) ) ;
#36 = FACE_OUTER_BOUND ( 'NONE', #76, .T. ) ;
#37 = CIRCLE ( 'NONE', #55, 0.6999999999999972911 ) ;
#38 = DIRECTION ( 'NONE',  ( 4.275831445896957731E-31, 1.000000000000000000, 1.224646799147353207E-16 ) ) ;
#39 = CARTESIAN_POINT ( 'NONE',  ( 1.047444401652940007E-13, -3.673940397442059178E-15, 30.00000000000000000 ) ) ;
#40 = VERTEX_POINT ( 'NONE', #68 ) ;
#41 = ORIENTED_EDGE ( 'NONE', *, *, #26, .F. ) ;
#42 = CLOSED_SHELL ( 'NONE', ( #103, #4, #46, #75 ) ) ;
#43 = AXIS2_PLACEMENT_3D ( 'NONE', #54, #17, #115 ) ;
#44 = SHAPE_DEFINITION_REPRESENTATION ( #88, #30 ) ;
#45 = CARTESIAN_POINT ( 'NONE',  ( 0.0000000000000000000, 0.0000000000000000000, 0.0000000000000000000 ) ) ;
#46 = ADVANCED_FACE ( 'NONE', ( #77, #50 ), #73, .T. ) ;
#47 = LOCAL_TIME ( 10, 24, 35.00000000000000000, #131 ) ;
#48 = PERSON_AND_ORGANIZATION ( #182, #80 ) ;
#49 = CC_DESIGN_DATE_AND_TIME_ASSIGNMENT ( #194, #58, ( #114 ) ) ;
#50 = FACE_BOUND ( 'NONE', #161, .T. ) ;
#51 = CC_DESIGN_APPROVAL ( #156, ( #130 ) ) ;
#52 = VERTEX_POINT ( 'NONE', #111 ) ;
#53 = DIRECTION ( 'NONE',  ( -3.491481338843133355E-15, 1.224646799147353207E-16, -1.000000000000000000 ) ) ;
#54 = CARTESIAN_POINT ( 'NONE',  ( 1.040461438975253740E-13, -3.649447461459112464E-15, 29.80000000000000071 ) ) ;
#55 = AXIS2_PLACEMENT_3D ( 'NONE', #63, #170, #99 ) ;
#56 = APPROVAL_ROLE ( '' ) ;
#57 = PERSON_AND_ORGANIZATION_ROLE ( 'design_owner' ) ;
#58 = DATE_TIME_ROLE ( 'classification_date' ) ;
#59 = ORIENTED_EDGE ( 'NONE', *, *, #116, .T. ) ;
#60 = DATE_AND_TIME ( #178, #67 ) ;
#61 = FACE_OUTER_BOUND ( 'NONE', #95, .T. ) ;
#62 = EDGE_CURVE ( 'NONE', #169, #169, #189, .T. ) ;
#63 = CARTESIAN_POINT ( 'NONE',  ( 2.793185071074506684E-14, -9.797174393178825657E-16, 8.000000000000000000 ) ) ;
#64 = AXIS2_PLACEMENT_3D ( 'NONE', #141, #203, #124 ) ;
#65 = CARTESIAN_POINT ( 'NONE',  ( 1.411065383596155275E-15, -4.949351114049596253E-17, 0.4041451884327405542 ) ) ;
#66 = FACE_OUTER_BOUND ( 'NONE', #150, .T. ) ;
#67 = LOCAL_TIME ( 10, 24, 35.00000000000000000, #11 ) ;
#68 = CARTESIAN_POINT ( 'NONE',  ( 1.040461438975253740E-13, 0.6999999999999962919, 29.80000000000000071 ) ) ;
#69 = PRODUCT_DEFINITION ( 'UNKNOWN', '', #130, #33 ) ;
#70 = PERSON_AND_ORGANIZATION_ROLE ( 'design_supplier' ) ;
#71 = APPROVAL_STATUS ( 'not_yet_approved' ) ;
#72 = APPROVAL_STATUS ( 'not_yet_approved' ) ;
#73 = CONICAL_SURFACE ( 'NONE', #121, 0.5000000000000000000, 0.7853981633974512766 ) ;
#74 = COORDINATED_UNIVERSAL_TIME_OFFSET ( 1, 0, .AHEAD. ) ;
#75 = ADVANCED_FACE ( 'NONE', ( #13 ), #186, .F. ) ;
#76 = EDGE_LOOP ( 'NONE', ( #59 ) ) ;
#77 = FACE_OUTER_BOUND ( 'NONE', #202, .T. ) ;
#78 = FACE_OUTER_BOUND ( 'NONE', #89, .T. ) ;
#79 = DIRECTION ( 'NONE',  ( -4.275831445896958607E-31, -1.000000000000000000, -1.224646799147353207E-16 ) ) ;
#80 = ORGANIZATION ( 'UNSPECIFIED', 'UNSPECIFIED', '' ) ;
#81 =( NAMED_UNIT ( * ) PLANE_ANGLE_UNIT ( ) SI_UNIT ( $, .RADIAN. ) );
#82 = AXIS2_PLACEMENT_3D ( 'NONE', #201, #137, #200 ) ;
#83 = CC_DESIGN_PERSON_AND_ORGANIZATION_ASSIGNMENT ( #149, #8, ( #130 ) ) ;
#84 = DATE_AND_TIME ( #176, #110 ) ;
#85 = PERSON_AND_ORGANIZATION_ROLE ( 'creator' ) ;
#86 = APPROVAL_DATE_TIME ( #198, #156 ) ;
#87 = MANIFOLD_SOLID_BREP ( 'Corps-Déplacer/Copier1[1]', #42 ) ;
#88 = PRODUCT_DEFINITION_SHAPE ( 'NONE', 'NONE',  #69 ) ;
#89 = EDGE_LOOP ( 'NONE', ( #10 ) ) ;
#90 =( NAMED_UNIT ( * ) SI_UNIT ( $, .STERADIAN. ) SOLID_ANGLE_UNIT ( ) );
#91 = AXIS2_PLACEMENT_3D ( 'NONE', #39, #127, #123 ) ;
#92 = CC_DESIGN_APPROVAL ( #192, ( #69 ) ) ;
#93 = DIRECTION ( 'NONE',  ( -5.502656983963560286E-31, -1.000000000000000000, -1.548860246407871718E-16 ) ) ;
#94 = APPROVAL ( #71, 'UNSPECIFIED' ) ;
#95 = EDGE_LOOP ( 'NONE', ( #145 ) ) ;
#96 = PLANE ( 'NONE',  #19 ) ;
#97 = AXIS2_PLACEMENT_3D ( 'NONE', #45, #120, #106 ) ;
#98 = EDGE_CURVE ( 'NONE', #173, #173, #37, .T. ) ;
#99 = DIRECTION ( 'NONE',  ( 0.0000000000000000000, 1.000000000000000000, 0.0000000000000000000 ) ) ;
#100 = DIRECTION ( 'NONE',  ( -3.491481338843133355E-15, 1.224646799147353207E-16, -1.000000000000000000 ) ) ;
#101 = EDGE_CURVE ( 'NONE', #40, #40, #15, .T. ) ;
#102 = APPROVAL_ROLE ( '' ) ;
#103 = ADVANCED_FACE ( 'NONE', ( #36 ), #96, .F. ) ;
#104 = PERSON_AND_ORGANIZATION ( #182, #80 ) ;
#105 = EDGE_LOOP ( 'NONE', ( #181 ) ) ;
#106 = DIRECTION ( 'NONE',  ( 1.000000000000000000, 0.0000000000000000000, 0.0000000000000000000 ) ) ;
#107 = PERSON_AND_ORGANIZATION_ROLE ( 'classification_officer' ) ;
#108 = CYLINDRICAL_SURFACE ( 'NONE', #2, 0.6999999999999968470 ) ;
#109 = PRODUCT ( '217', '217', '', ( #195 ) ) ;
#110 = LOCAL_TIME ( 10, 24, 35.00000000000000000, #74 ) ;
#111 = CARTESIAN_POINT ( 'NONE',  ( 1.047444401652940007E-13, 0.4999999999999963363, 30.00000000000000000 ) ) ;
#112 = EDGE_LOOP ( 'NONE', ( #27 ) ) ;
#113 = FACE_OUTER_BOUND ( 'NONE', #112, .T. ) ;
#114 = SECURITY_CLASSIFICATION ( '', '', #180 ) ;
#115 = DIRECTION ( 'NONE',  ( 0.0000000000000000000, 1.000000000000000000, 0.0000000000000000000 ) ) ;
#116 = EDGE_CURVE ( 'NONE', #190, #190, #119, .T. ) ;
#117 = APPLICATION_CONTEXT ( 'configuration controlled 3d designs of mechanical parts and assemblies' ) ;
#118 = CLOSED_SHELL ( 'NONE', ( #20, #23, #133 ) ) ;
#119 = CIRCLE ( 'NONE', #64, 0.6999999999999972911 ) ;
#120 = DIRECTION ( 'NONE',  ( 0.0000000000000000000, 0.0000000000000000000, 1.000000000000000000 ) ) ;
#121 = AXIS2_PLACEMENT_3D ( 'NONE', #185, #100, #16 ) ;
#122 = COORDINATED_UNIVERSAL_TIME_OFFSET ( 1, 0, .AHEAD. ) ;
#123 = DIRECTION ( 'NONE',  ( 0.0000000000000000000, 1.000000000000000000, 0.0000000000000000000 ) ) ;
#124 = DIRECTION ( 'NONE',  ( 0.0000000000000000000, 1.000000000000000000, 0.0000000000000000000 ) ) ;
#125 = ORIENTED_EDGE ( 'NONE', *, *, #26, .T. ) ;
#126 = FACE_OUTER_BOUND ( 'NONE', #105, .T. ) ;
#127 = DIRECTION ( 'NONE',  ( -3.491481338843133355E-15, 1.224646799147353207E-16, -1.000000000000000000 ) ) ;
#128 = CARTESIAN_POINT ( 'NONE',  ( 2.793185071074506684E-14, 0.6999999999999962919, 8.000000000000000000 ) ) ;
#129 = CC_DESIGN_APPROVAL ( #94, ( #114 ) ) ;
#130 = PRODUCT_DEFINITION_FORMATION_WITH_SPECIFIED_SOURCE ( 'ANY', '', #109, .NOT_KNOWN. ) ;
#131 = COORDINATED_UNIVERSAL_TIME_OFFSET ( 1, 0, .AHEAD. ) ;
#132 = APPLICATION_PROTOCOL_DEFINITION ( 'international standard', 'config_control_design', 1994, #32 ) ;
#133 = ADVANCED_FACE ( 'NONE', ( #66 ), #172, .T. ) ;
#134 = APPROVAL_DATE_TIME ( #84, #94 ) ;
#135 = CALENDAR_DATE ( 2021, 6, 10 ) ;
#136 = ORIENTED_EDGE ( 'NONE', *, *, #98, .F. ) ;
#137 = DIRECTION ( 'NONE',  ( -3.491481338843133355E-15, 1.224646799147353207E-16, -1.000000000000000000 ) ) ;
#138 = DIRECTION ( 'NONE',  ( -3.491481338843133355E-15, 1.224646799147353207E-16, -1.000000000000000000 ) ) ;
#139 = PRODUCT_RELATED_PRODUCT_CATEGORY ( 'detail', '', ( #109 ) ) ;
#140 = CYLINDRICAL_SURFACE ( 'NONE', #143, 0.6999999999999986233 ) ;
#141 = CARTESIAN_POINT ( 'NONE',  ( 2.793185071074506684E-14, -9.797174393178825657E-16, 8.000000000000000000 ) ) ;
#142 = CARTESIAN_POINT ( 'NONE',  ( 1.411065383596155669E-15, 0.6999999999999962919, 0.4041451884327406652 ) ) ;
#143 = AXIS2_PLACEMENT_3D ( 'NONE', #31, #154, #38 ) ;
#144 = AXIS2_PLACEMENT_3D ( 'NONE', #158, #18, #79 ) ;
#145 = ORIENTED_EDGE ( 'NONE', *, *, #62, .F. ) ;
#146 = APPROVAL_STATUS ( 'not_yet_approved' ) ;
#147 = CONICAL_SURFACE ( 'NONE', #162, 0.6999999999999962919, 1.047197551196592746 ) ;
#148 = COORDINATED_UNIVERSAL_TIME_OFFSET ( 1, 0, .AHEAD. ) ;
#149 = PERSON_AND_ORGANIZATION ( #182, #80 ) ;
#150 = EDGE_LOOP ( 'NONE', ( #136 ) ) ;
#151 = CALENDAR_DATE ( 2021, 6, 10 ) ;
#152 = CARTESIAN_POINT ( 'NONE',  ( 0.0000000000000000000, 0.0000000000000000000, 0.0000000000000000000 ) ) ;
#153 = CC_DESIGN_PERSON_AND_ORGANIZATION_ASSIGNMENT ( #104, #57, ( #109 ) ) ;
#154 = DIRECTION ( 'NONE',  ( -3.491481338843133355E-15, 1.224646799147353207E-16, -1.000000000000000000 ) ) ;
#155 = CARTESIAN_POINT ( 'NONE',  ( 2.793185071074506684E-14, 5.249159239316466732E-33, 8.000000000000000000 ) ) ;
#156 = APPROVAL ( #72, 'UNSPECIFIED' ) ;
#157 = DIRECTION ( 'NONE',  ( 5.502656983963560286E-31, 1.000000000000000000, 1.548860246407871718E-16 ) ) ;
#158 = CARTESIAN_POINT ( 'NONE',  ( 2.793185071074506684E-14, 5.249159239316466732E-33, 8.000000000000000000 ) ) ;
#159 =( LENGTH_UNIT ( ) NAMED_UNIT ( * ) SI_UNIT ( .MILLI., .METRE. ) );
#160 = ORIENTED_EDGE ( 'NONE', *, *, #101, .F. ) ;
#161 = EDGE_LOOP ( 'NONE', ( #125 ) ) ;
#162 = AXIS2_PLACEMENT_3D ( 'NONE', #34, #188, #93 ) ;
#163 = PERSON_AND_ORGANIZATION ( #182, #80 ) ;
#164 = ORIENTED_EDGE ( 'NONE', *, *, #101, .T. ) ;
#165 = DATE_AND_TIME ( #151, #24 ) ;
#166 = CALENDAR_DATE ( 2021, 6, 10 ) ;
#167 = CIRCLE ( 'NONE', #91, 0.5000000000000000000 ) ;
#168 = FACE_OUTER_BOUND ( 'NONE', #199, .T. ) ;
#169 = VERTEX_POINT ( 'NONE', #142 ) ;
#170 = DIRECTION ( 'NONE',  ( -3.491481338843133355E-15, 1.224646799147353207E-16, -1.000000000000000000 ) ) ;
#171 = DIRECTION ( 'NONE',  ( -4.275831445896958607E-31, -1.000000000000000000, -1.224646799147353207E-16 ) ) ;
#172 = PLANE ( 'NONE',  #144 ) ;
#173 = VERTEX_POINT ( 'NONE', #1 ) ;
#174 = CC_DESIGN_PERSON_AND_ORGANIZATION_ASSIGNMENT ( #196, #107, ( #114 ) ) ;
#175 = APPROVAL_PERSON_ORGANIZATION ( #48, #156, #28 ) ;
#176 = CALENDAR_DATE ( 2021, 6, 10 ) ;
#177 = PERSON_AND_ORGANIZATION ( #182, #80 ) ;
#178 = CALENDAR_DATE ( 2021, 6, 10 ) ;
#179 = APPROVAL_DATE_TIME ( #60, #192 ) ;
#180 = SECURITY_CLASSIFICATION_LEVEL ( 'unclassified' ) ;
#181 = ORIENTED_EDGE ( 'NONE', *, *, #98, .T. ) ;
#182 = PERSON ( 'UNSPECIFIED', 'UNSPECIFIED', 'UNSPECIFIED', ('UNSPECIFIED'), ('UNSPECIFIED'), ('UNSPECIFIED') ) ;
#183 = CC_DESIGN_PERSON_AND_ORGANIZATION_ASSIGNMENT ( #177, #70, ( #130 ) ) ;
#184 =( GEOMETRIC_REPRESENTATION_CONTEXT ( 3 ) GLOBAL_UNCERTAINTY_ASSIGNED_CONTEXT ( ( #9 ) ) GLOBAL_UNIT_ASSIGNED_CONTEXT ( ( #159, #81, #90 ) ) REPRESENTATION_CONTEXT ( 'NONE', 'WORKASPACE' ) );
#185 = CARTESIAN_POINT ( 'NONE',  ( 1.047444401652940007E-13, -3.673940397442059178E-15, 30.00000000000000000 ) ) ;
#186 = PLANE ( 'NONE',  #82 ) ;
#187 = DIRECTION ( 'NONE',  ( 3.491481338843133355E-15, -1.224646799147353207E-16, 1.000000000000000000 ) ) ;
#188 = DIRECTION ( 'NONE',  ( 3.491481338843133355E-15, -1.224646799147353207E-16, 1.000000000000000000 ) ) ;
#189 = CIRCLE ( 'NONE', #197, 0.6999999999999962919 ) ;
#190 = VERTEX_POINT ( 'NONE', #128 ) ;
#191 = CC_DESIGN_PERSON_AND_ORGANIZATION_ASSIGNMENT ( #163, #85, ( #69 ) ) ;
#192 = APPROVAL ( #146, 'UNSPECIFIED' ) ;
#193 = PERSON_AND_ORGANIZATION ( #182, #80 ) ;
#194 = DATE_AND_TIME ( #166, #47 ) ;
#195 = MECHANICAL_CONTEXT ( 'NONE', #117, 'mechanical' ) ;
#196 = PERSON_AND_ORGANIZATION ( #182, #80 ) ;
#197 = AXIS2_PLACEMENT_3D ( 'NONE', #65, #138, #157 ) ;
#198 = DATE_AND_TIME ( #135, #7 ) ;
#199 = EDGE_LOOP ( 'NONE', ( #164 ) ) ;
#200 = DIRECTION ( 'NONE',  ( 4.275831445896958607E-31, 1.000000000000000000, 1.224646799147353207E-16 ) ) ;
#201 = CARTESIAN_POINT ( 'NONE',  ( 1.047444401652940007E-13, 3.749399456654588597E-33, 30.00000000000000000 ) ) ;
#202 = EDGE_LOOP ( 'NONE', ( #160 ) ) ;
#203 = DIRECTION ( 'NONE',  ( -3.491481338843133355E-15, 1.224646799147353207E-16, -1.000000000000000000 ) ) ;
ENDSEC;
END-ISO-10303-21;
