ISO-10303-21;
HEADER;
FILE_DESCRIPTION (( 'STEP AP203' ),
    '1' );
FILE_NAME ('215.step',
    '2021-10-06T08:24:34',
    ( '' ),
    ( '' ),
    'SwSTEP 2.0',
    'SolidWorks 2019',
    '' );
FILE_SCHEMA (( 'CONFIG_CONTROL_DESIGN' ));
ENDSEC;

DATA;
#1 = CARTESIAN_POINT ( 'NONE',  ( 2.793185071074506684E-14, -9.797174393178825657E-16, 8.000000000000000000 ) ) ;
#2 = AXIS2_PLACEMENT_3D ( 'NONE', #179, #148, #131 ) ;
#3 = EDGE_LOOP ( 'NONE', ( #144 ) ) ;
#4 = EDGE_CURVE ( 'NONE', #182, #182, #59, .T. ) ;
#5 = FACE_BOUND ( 'NONE', #127, .T. ) ;
#6 = LOCAL_TIME ( 10, 24, 34.00000000000000000, #168 ) ;
#7 = AXIS2_PLACEMENT_3D ( 'NONE', #1, #84, #57 ) ;
#8 = CARTESIAN_POINT ( 'NONE',  ( 1.310274999053572192E-15, -4.595826034474622803E-17, 0.3752776749732589234 ) ) ;
#9 = APPLICATION_PROTOCOL_DEFINITION ( 'international standard', 'config_control_design', 1994, #109 ) ;
#10 = ADVANCED_FACE ( 'NONE', ( #68 ), #118, .T. ) ;
#11 = FACE_OUTER_BOUND ( 'NONE', #161, .T. ) ;
#12 = APPROVAL_DATE_TIME ( #122, #117 ) ;
#13 = CIRCLE ( 'NONE', #76, 0.4500000000000000111 ) ;
#14 = APPROVAL_ROLE ( '' ) ;
#15 = COORDINATED_UNIVERSAL_TIME_OFFSET ( 1, 0, .AHEAD. ) ;
#16 = ORIENTED_EDGE ( 'NONE', *, *, #4, .T. ) ;
#17 = EDGE_LOOP ( 'NONE', ( #172 ) ) ;
#18 = COORDINATED_UNIVERSAL_TIME_OFFSET ( 1, 0, .AHEAD. ) ;
#19 = EDGE_CURVE ( 'NONE', #111, #111, #167, .T. ) ;
#20 = DIRECTION ( 'NONE',  ( 0.0000000000000000000, 1.000000000000000000, 0.0000000000000000000 ) ) ;
#21 = CC_DESIGN_APPROVAL ( #28, ( #71 ) ) ;
#22 = CARTESIAN_POINT ( 'NONE',  ( 2.793185071074506684E-14, 0.6499999999999962474, 8.000000000000000000 ) ) ;
#23 = ADVANCED_FACE ( 'NONE', ( #104 ), #157, .F. ) ;
#24 = DIRECTION ( 'NONE',  ( -4.275831445896958607E-31, -1.000000000000000000, -1.224646799147353207E-16 ) ) ;
#25 = AXIS2_PLACEMENT_3D ( 'NONE', #175, #54, #100 ) ;
#26 = UNCERTAINTY_MEASURE_WITH_UNIT (LENGTH_MEASURE( 1.000000000000000082E-05 ), #197, 'distance_accuracy_value', 'NONE');
#27 = PERSON_AND_ORGANIZATION_ROLE ( 'design_owner' ) ;
#28 = APPROVAL ( #187, 'UNSPECIFIED' ) ;
#29 =( NAMED_UNIT ( * ) PLANE_ANGLE_UNIT ( ) SI_UNIT ( $, .RADIAN. ) );
#30 = PLANE ( 'NONE',  #201 ) ;
#31 = PERSON_AND_ORGANIZATION ( #132, #166 ) ;
#32 = PERSON_AND_ORGANIZATION ( #132, #166 ) ;
#33 = EDGE_CURVE ( 'NONE', #47, #47, #86, .T. ) ;
#34 = AXIS2_PLACEMENT_3D ( 'NONE', #94, #149, #75 ) ;
#35 = SECURITY_CLASSIFICATION_LEVEL ( 'unclassified' ) ;
#36 = ADVANCED_FACE ( 'NONE', ( #89, #186 ), #188, .T. ) ;
#37 = EDGE_LOOP ( 'NONE', ( #90 ) ) ;
#38 = AXIS2_PLACEMENT_3D ( 'NONE', #124, #39, #20 ) ;
#39 = DIRECTION ( 'NONE',  ( -3.491481338843133355E-15, 1.224646799147353207E-16, -1.000000000000000000 ) ) ;
#40 = DIRECTION ( 'NONE',  ( -3.491481338843133355E-15, 1.224646799147353207E-16, -1.000000000000000000 ) ) ;
#41 = AXIS2_PLACEMENT_3D ( 'NONE', #52, #69, #53 ) ;
#42 = DIRECTION ( 'NONE',  ( 0.0000000000000000000, 1.000000000000000000, 0.0000000000000000000 ) ) ;
#43 = ADVANCED_BREP_SHAPE_REPRESENTATION ( '215', ( #93, #153, #2 ), #135 ) ;
#44 = LOCAL_TIME ( 10, 24, 34.00000000000000000, #170 ) ;
#45 = ADVANCED_FACE ( 'NONE', ( #88 ), #165, .T. ) ;
#46 = DIRECTION ( 'NONE',  ( -3.491481338843133355E-15, 1.224646799147353207E-16, -1.000000000000000000 ) ) ;
#47 = VERTEX_POINT ( 'NONE', #22 ) ;
#48 = AXIS2_PLACEMENT_3D ( 'NONE', #129, #116, #85 ) ;
#49 = PERSON_AND_ORGANIZATION ( #132, #166 ) ;
#50 = CALENDAR_DATE ( 2021, 6, 10 ) ;
#51 = DATE_AND_TIME ( #83, #6 ) ;
#52 = CARTESIAN_POINT ( 'NONE',  ( 0.0000000000000000000, 0.0000000000000000000, 0.0000000000000000000 ) ) ;
#53 = DIRECTION ( 'NONE',  ( 4.275831445896958607E-31, 1.000000000000000000, 1.224646799147353207E-16 ) ) ;
#54 = DIRECTION ( 'NONE',  ( 3.491481338843133355E-15, -1.224646799147353207E-16, 1.000000000000000000 ) ) ;
#55 = CIRCLE ( 'NONE', #62, 0.6499999999999962474 ) ;
#56 = ORIENTED_EDGE ( 'NONE', *, *, #95, .T. ) ;
#57 = DIRECTION ( 'NONE',  ( 0.0000000000000000000, 1.000000000000000000, 0.0000000000000000000 ) ) ;
#58 = MECHANICAL_CONTEXT ( 'NONE', #109, 'mechanical' ) ;
#59 = CIRCLE ( 'NONE', #7, 0.6499999999999972466 ) ;
#60 = DIRECTION ( 'NONE',  ( -3.491481338843133355E-15, 1.224646799147353207E-16, -1.000000000000000000 ) ) ;
#61 = ADVANCED_FACE ( 'NONE', ( #63, #5 ), #193, .T. ) ;
#62 = AXIS2_PLACEMENT_3D ( 'NONE', #8, #40, #136 ) ;
#63 = FACE_OUTER_BOUND ( 'NONE', #160, .T. ) ;
#64 = CARTESIAN_POINT ( 'NONE',  ( 1.310274999053572389E-15, 0.6499999999999962474, 0.3752776749732589789 ) ) ;
#65 = APPROVAL_STATUS ( 'not_yet_approved' ) ;
#66 = PRODUCT_DEFINITION ( 'UNKNOWN', '', #130, #194 ) ;
#67 = COORDINATED_UNIVERSAL_TIME_OFFSET ( 1, 0, .AHEAD. ) ;
#68 = FACE_OUTER_BOUND ( 'NONE', #3, .T. ) ;
#69 = DIRECTION ( 'NONE',  ( -3.491481338843133355E-15, 1.224646799147353207E-16, -1.000000000000000000 ) ) ;
#70 = EDGE_CURVE ( 'NONE', #133, #133, #55, .T. ) ;
#71 = SECURITY_CLASSIFICATION ( '', '', #35 ) ;
#72 = EDGE_LOOP ( 'NONE', ( #159 ) ) ;
#73 = CARTESIAN_POINT ( 'NONE',  ( 1.047444401652940007E-13, -3.673940397442059178E-15, 30.00000000000000000 ) ) ;
#74 = CC_DESIGN_SECURITY_CLASSIFICATION ( #71, ( #130 ) ) ;
#75 = DIRECTION ( 'NONE',  ( -4.275831445896958607E-31, -1.000000000000000000, -1.224646799147353207E-16 ) ) ;
#76 = AXIS2_PLACEMENT_3D ( 'NONE', #77, #60, #108 ) ;
#77 = CARTESIAN_POINT ( 'NONE',  ( 1.047444401652940007E-13, -3.673940397442059178E-15, 30.00000000000000000 ) ) ;
#78 = DIRECTION ( 'NONE',  ( 4.275831445896958607E-31, 1.000000000000000000, 1.224646799147353207E-16 ) ) ;
#79 = CC_DESIGN_PERSON_AND_ORGANIZATION_ASSIGNMENT ( #114, #99, ( #130 ) ) ;
#80 = AXIS2_PLACEMENT_3D ( 'NONE', #126, #142, #102 ) ;
#81 = APPROVAL_PERSON_ORGANIZATION ( #143, #117, #156 ) ;
#82 = CALENDAR_DATE ( 2021, 6, 10 ) ;
#83 = CALENDAR_DATE ( 2021, 6, 10 ) ;
#84 = DIRECTION ( 'NONE',  ( -3.491481338843133355E-15, 1.224646799147353207E-16, -1.000000000000000000 ) ) ;
#85 = DIRECTION ( 'NONE',  ( 0.0000000000000000000, 1.000000000000000000, 0.0000000000000000000 ) ) ;
#86 = CIRCLE ( 'NONE', #48, 0.6499999999999972466 ) ;
#87 = DATE_TIME_ROLE ( 'creation_date' ) ;
#88 = FACE_OUTER_BOUND ( 'NONE', #17, .T. ) ;
#89 = FACE_OUTER_BOUND ( 'NONE', #189, .T. ) ;
#90 = ORIENTED_EDGE ( 'NONE', *, *, #19, .T. ) ;
#91 = AXIS2_PLACEMENT_3D ( 'NONE', #162, #46, #78 ) ;
#92 = APPLICATION_PROTOCOL_DEFINITION ( 'international standard', 'config_control_design', 1994, #98 ) ;
#93 = MANIFOLD_SOLID_BREP ( 'Corps-Déplacer/Copier1[1]', #198 ) ;
#94 = CARTESIAN_POINT ( 'NONE',  ( 2.793185071074506684E-14, 4.874219293651002330E-33, 8.000000000000000000 ) ) ;
#95 = EDGE_CURVE ( 'NONE', #192, #192, #13, .T. ) ;
#96 = PERSON_AND_ORGANIZATION_ROLE ( 'design_supplier' ) ;
#97 = CC_DESIGN_APPROVAL ( #117, ( #130 ) ) ;
#98 = APPLICATION_CONTEXT ( 'configuration controlled 3d designs of mechanical parts and assemblies' ) ;
#99 = PERSON_AND_ORGANIZATION_ROLE ( 'creator' ) ;
#100 = DIRECTION ( 'NONE',  ( -2.962969145211149362E-31, -1.000000000000000000, -8.340016711427005825E-17 ) ) ;
#101 = DATE_AND_TIME ( #50, #155 ) ;
#102 = DIRECTION ( 'NONE',  ( 4.275831445896958607E-31, 1.000000000000000000, 1.224646799147353207E-16 ) ) ;
#103 = CC_DESIGN_DATE_AND_TIME_ASSIGNMENT ( #101, #125, ( #71 ) ) ;
#104 = FACE_OUTER_BOUND ( 'NONE', #72, .T. ) ;
#105 = CARTESIAN_POINT ( 'NONE',  ( 2.793185071074506684E-14, 0.6499999999999962474, 8.000000000000000000 ) ) ;
#106 = CC_DESIGN_DATE_AND_TIME_ASSIGNMENT ( #51, #87, ( #66 ) ) ;
#107 = APPROVAL_PERSON_ORGANIZATION ( #32, #150, #202 ) ;
#108 = DIRECTION ( 'NONE',  ( 0.0000000000000000000, 1.000000000000000000, 0.0000000000000000000 ) ) ;
#109 = APPLICATION_CONTEXT ( 'configuration controlled 3d designs of mechanical parts and assemblies' ) ;
#110 = APPROVAL_PERSON_ORGANIZATION ( #31, #28, #14 ) ;
#111 = VERTEX_POINT ( 'NONE', #139 ) ;
#112 =( NAMED_UNIT ( * ) SI_UNIT ( $, .STERADIAN. ) SOLID_ANGLE_UNIT ( ) );
#113 = PERSON_AND_ORGANIZATION ( #132, #166 ) ;
#114 = PERSON_AND_ORGANIZATION ( #132, #166 ) ;
#115 = CALENDAR_DATE ( 2021, 6, 10 ) ;
#116 = DIRECTION ( 'NONE',  ( -3.491481338843133355E-15, 1.224646799147353207E-16, -1.000000000000000000 ) ) ;
#117 = APPROVAL ( #65, 'UNSPECIFIED' ) ;
#118 = CONICAL_SURFACE ( 'NONE', #25, 0.6499999999999962474, 1.047197551196592746 ) ;
#119 = EDGE_LOOP ( 'NONE', ( #158 ) ) ;
#120 = AXIS2_PLACEMENT_3D ( 'NONE', #73, #151, #42 ) ;
#121 = FACE_OUTER_BOUND ( 'NONE', #37, .T. ) ;
#122 = DATE_AND_TIME ( #115, #180 ) ;
#123 = LOCAL_TIME ( 10, 24, 34.00000000000000000, #18 ) ;
#124 = CARTESIAN_POINT ( 'NONE',  ( 1.040461438975253740E-13, -3.649447461459112464E-15, 29.80000000000000071 ) ) ;
#125 = DATE_TIME_ROLE ( 'classification_date' ) ;
#126 = CARTESIAN_POINT ( 'NONE',  ( 1.047444401652940007E-13, 3.374459510989123511E-33, 30.00000000000000000 ) ) ;
#127 = EDGE_LOOP ( 'NONE', ( #56 ) ) ;
#128 = PRODUCT ( '215', '215', '', ( #58 ) ) ;
#129 = CARTESIAN_POINT ( 'NONE',  ( 2.793185071074506684E-14, -9.797174393178825657E-16, 8.000000000000000000 ) ) ;
#130 = PRODUCT_DEFINITION_FORMATION_WITH_SPECIFIED_SOURCE ( 'ANY', '', #128, .NOT_KNOWN. ) ;
#131 = DIRECTION ( 'NONE',  ( 1.000000000000000000, 0.0000000000000000000, 0.0000000000000000000 ) ) ;
#132 = PERSON ( 'UNSPECIFIED', 'UNSPECIFIED', 'UNSPECIFIED', ('UNSPECIFIED'), ('UNSPECIFIED'), ('UNSPECIFIED') ) ;
#133 = VERTEX_POINT ( 'NONE', #64 ) ;
#134 = CC_DESIGN_PERSON_AND_ORGANIZATION_ASSIGNMENT ( #154, #141, ( #71 ) ) ;
#135 =( GEOMETRIC_REPRESENTATION_CONTEXT ( 3 ) GLOBAL_UNCERTAINTY_ASSIGNED_CONTEXT ( ( #26 ) ) GLOBAL_UNIT_ASSIGNED_CONTEXT ( ( #197, #29, #112 ) ) REPRESENTATION_CONTEXT ( 'NONE', 'WORKASPACE' ) );
#136 = DIRECTION ( 'NONE',  ( 2.962969145211149362E-31, 1.000000000000000000, 8.340016711427005825E-17 ) ) ;
#137 = CC_DESIGN_PERSON_AND_ORGANIZATION_ASSIGNMENT ( #113, #199, ( #66 ) ) ;
#138 = CARTESIAN_POINT ( 'NONE',  ( 1.047444401652940007E-13, 0.4499999999999962919, 30.00000000000000000 ) ) ;
#139 = CARTESIAN_POINT ( 'NONE',  ( 1.040461438975253740E-13, 0.6499999999999962474, 29.80000000000000071 ) ) ;
#140 = SHAPE_DEFINITION_REPRESENTATION ( #203, #43 ) ;
#141 = PERSON_AND_ORGANIZATION_ROLE ( 'classification_officer' ) ;
#142 = DIRECTION ( 'NONE',  ( -3.491481338843133355E-15, 1.224646799147353207E-16, -1.000000000000000000 ) ) ;
#143 = PERSON_AND_ORGANIZATION ( #132, #166 ) ;
#144 = ORIENTED_EDGE ( 'NONE', *, *, #70, .T. ) ;
#145 = CLOSED_SHELL ( 'NONE', ( #10, #36, #45 ) ) ;
#146 = APPROVAL_STATUS ( 'not_yet_approved' ) ;
#147 = EDGE_LOOP ( 'NONE', ( #174 ) ) ;
#148 = DIRECTION ( 'NONE',  ( 0.0000000000000000000, 0.0000000000000000000, 1.000000000000000000 ) ) ;
#149 = DIRECTION ( 'NONE',  ( 3.491481338843133355E-15, -1.224646799147353207E-16, 1.000000000000000000 ) ) ;
#150 = APPROVAL ( #146, 'UNSPECIFIED' ) ;
#151 = DIRECTION ( 'NONE',  ( -3.491481338843133355E-15, 1.224646799147353207E-16, -1.000000000000000000 ) ) ;
#152 = CC_DESIGN_APPROVAL ( #150, ( #66 ) ) ;
#153 = MANIFOLD_SOLID_BREP ( 'Corps-Déplacer/Copier1[2]', #145 ) ;
#154 = PERSON_AND_ORGANIZATION ( #132, #166 ) ;
#155 = LOCAL_TIME ( 10, 24, 34.00000000000000000, #67 ) ;
#156 = APPROVAL_ROLE ( '' ) ;
#157 = PLANE ( 'NONE',  #80 ) ;
#158 = ORIENTED_EDGE ( 'NONE', *, *, #4, .F. ) ;
#159 = ORIENTED_EDGE ( 'NONE', *, *, #95, .F. ) ;
#160 = EDGE_LOOP ( 'NONE', ( #190 ) ) ;
#161 = EDGE_LOOP ( 'NONE', ( #16 ) ) ;
#162 = CARTESIAN_POINT ( 'NONE',  ( 0.0000000000000000000, 0.0000000000000000000, 0.0000000000000000000 ) ) ;
#163 = ADVANCED_FACE ( 'NONE', ( #11 ), #30, .F. ) ;
#164 = PERSON_AND_ORGANIZATION ( #132, #166 ) ;
#165 = PLANE ( 'NONE',  #34 ) ;
#166 = ORGANIZATION ( 'UNSPECIFIED', 'UNSPECIFIED', '' ) ;
#167 = CIRCLE ( 'NONE', #38, 0.6500000000000000222 ) ;
#168 = COORDINATED_UNIVERSAL_TIME_OFFSET ( 1, 0, .AHEAD. ) ;
#169 = CC_DESIGN_PERSON_AND_ORGANIZATION_ASSIGNMENT ( #49, #96, ( #130 ) ) ;
#170 = COORDINATED_UNIVERSAL_TIME_OFFSET ( 1, 0, .AHEAD. ) ;
#171 = DATE_AND_TIME ( #184, #123 ) ;
#172 = ORIENTED_EDGE ( 'NONE', *, *, #33, .F. ) ;
#173 = CC_DESIGN_PERSON_AND_ORGANIZATION_ASSIGNMENT ( #164, #27, ( #128 ) ) ;
#174 = ORIENTED_EDGE ( 'NONE', *, *, #33, .T. ) ;
#175 = CARTESIAN_POINT ( 'NONE',  ( 1.310274999053572192E-15, -4.595826034474622803E-17, 0.3752776749732589234 ) ) ;
#176 = ORIENTED_EDGE ( 'NONE', *, *, #70, .F. ) ;
#177 = FACE_OUTER_BOUND ( 'NONE', #119, .T. ) ;
#178 = DIRECTION ( 'NONE',  ( 3.491481338843133355E-15, -1.224646799147353207E-16, 1.000000000000000000 ) ) ;
#179 = CARTESIAN_POINT ( 'NONE',  ( 0.0000000000000000000, 0.0000000000000000000, 0.0000000000000000000 ) ) ;
#180 = LOCAL_TIME ( 10, 24, 34.00000000000000000, #15 ) ;
#181 = CYLINDRICAL_SURFACE ( 'NONE', #91, 0.6499999999999986899 ) ;
#182 = VERTEX_POINT ( 'NONE', #105 ) ;
#183 = DATE_AND_TIME ( #82, #44 ) ;
#184 = CALENDAR_DATE ( 2021, 6, 10 ) ;
#185 = APPROVAL_DATE_TIME ( #171, #150 ) ;
#186 = FACE_OUTER_BOUND ( 'NONE', #147, .T. ) ;
#187 = APPROVAL_STATUS ( 'not_yet_approved' ) ;
#188 = CYLINDRICAL_SURFACE ( 'NONE', #41, 0.6499999999999966915 ) ;
#189 = EDGE_LOOP ( 'NONE', ( #176 ) ) ;
#190 = ORIENTED_EDGE ( 'NONE', *, *, #19, .F. ) ;
#191 = PRODUCT_RELATED_PRODUCT_CATEGORY ( 'detail', '', ( #128 ) ) ;
#192 = VERTEX_POINT ( 'NONE', #138 ) ;
#193 = CONICAL_SURFACE ( 'NONE', #120, 0.4500000000000000111, 0.7853981633974512766 ) ;
#194 = DESIGN_CONTEXT ( 'detailed design', #98, 'design' ) ;
#195 = CARTESIAN_POINT ( 'NONE',  ( 2.793185071074506684E-14, 4.874219293651002330E-33, 8.000000000000000000 ) ) ;
#196 = ADVANCED_FACE ( 'NONE', ( #177, #121 ), #181, .T. ) ;
#197 =( LENGTH_UNIT ( ) NAMED_UNIT ( * ) SI_UNIT ( .MILLI., .METRE. ) );
#198 = CLOSED_SHELL ( 'NONE', ( #163, #196, #61, #23 ) ) ;
#199 = PERSON_AND_ORGANIZATION_ROLE ( 'creator' ) ;
#200 = APPROVAL_DATE_TIME ( #183, #28 ) ;
#201 = AXIS2_PLACEMENT_3D ( 'NONE', #195, #178, #24 ) ;
#202 = APPROVAL_ROLE ( '' ) ;
#203 = PRODUCT_DEFINITION_SHAPE ( 'NONE', 'NONE',  #66 ) ;
ENDSEC;
END-ISO-10303-21;
