ISO-10303-21;
HEADER;
FILE_DESCRIPTION (( 'STEP AP203' ),
    '1' );
FILE_NAME ('21462.step',
    '2021-09-03T07:21:24',
    ( '' ),
    ( '' ),
    'SwSTEP 2.0',
    'SolidWorks 2019',
    '' );
FILE_SCHEMA (( 'CONFIG_CONTROL_DESIGN' ));
ENDSEC;

DATA;
#1 = COORDINATED_UNIVERSAL_TIME_OFFSET ( 1, 0, .AHEAD. ) ;
#2 = PRODUCT_RELATED_PRODUCT_CATEGORY ( 'detail', '', ( #117 ) ) ;
#3 = DIRECTION ( 'NONE',  ( 0.0000000000000000000, 1.000000000000000000, 0.0000000000000000000 ) ) ;
#4 = VERTEX_POINT ( 'NONE', #306 ) ;
#5 = CARTESIAN_POINT ( 'NONE',  ( 1.222018468595096801E-13, -4.286263797015736496E-15, 35.00000000000000000 ) ) ;
#6 = CARTESIAN_POINT ( 'NONE',  ( 3.551201439720664275E-13, -5.500000000000015987, 102.0000000000000000 ) ) ;
#7 = CYLINDRICAL_SURFACE ( 'NONE', #195, 6.500000000000000888 ) ;
#8 = CARTESIAN_POINT ( 'NONE',  ( 1.222018468595096801E-13, 6.499999999999992006, 35.00000000000000000 ) ) ;
#9 = ORIENTED_EDGE ( 'NONE', *, *, #282, .F. ) ;
#10 = COORDINATED_UNIVERSAL_TIME_OFFSET ( 1, 0, .AHEAD. ) ;
#11 = PERSON_AND_ORGANIZATION_ROLE ( 'design_supplier' ) ;
#12 = VERTEX_POINT ( 'NONE', #281 ) ;
#13 = CARTESIAN_POINT ( 'NONE',  ( 2.382167514607787583E-13, -6.500000000000015987, 100.9999999999999858 ) ) ;
#14 = APPROVAL_ROLE ( '' ) ;
#15 = EDGE_CURVE ( 'NONE', #189, #4, #303, .T. ) ;
#16 = ORIENTED_EDGE ( 'NONE', *, *, #234, .F. ) ;
#17 = AXIS2_PLACEMENT_3D ( 'NONE', #138, #239, #118 ) ;
#18 = VECTOR ( 'NONE', #286, 1000.000000000000000 ) ;
#19 = AXIS2_PLACEMENT_3D ( 'NONE', #120, #331, #193 ) ;
#20 = EDGE_CURVE ( 'NONE', #90, #277, #168, .T. ) ;
#21 = FACE_OUTER_BOUND ( 'NONE', #94, .T. ) ;
#22 =( GEOMETRIC_REPRESENTATION_CONTEXT ( 3 ) GLOBAL_UNCERTAINTY_ASSIGNED_CONTEXT ( ( #68 ) ) GLOBAL_UNIT_ASSIGNED_CONTEXT ( ( #292, #124, #330 ) ) REPRESENTATION_CONTEXT ( 'NONE', 'WORKASPACE' ) );
#23 = CARTESIAN_POINT ( 'NONE',  ( 1.222018468595096801E-13, -4.286263797015736496E-15, 35.00000000000000000 ) ) ;
#24 = ADVANCED_FACE ( 'NONE', ( #275 ), #145, .T. ) ;
#25 = DIRECTION ( 'NONE',  ( -3.491481338843133355E-15, 1.224646799147353207E-16, -1.000000000000000000 ) ) ;
#26 = DIRECTION ( 'NONE',  ( -4.275831445896958607E-31, -1.000000000000000000, -1.224646799147353207E-16 ) ) ;
#27 = APPROVAL_PERSON_ORGANIZATION ( #64, #180, #236 ) ;
#28 = EDGE_CURVE ( 'NONE', #235, #12, #198, .T. ) ;
#29 = PLANE ( 'NONE',  #298 ) ;
#30 = APPROVAL_DATE_TIME ( #92, #85 ) ;
#31 = CARTESIAN_POINT ( 'NONE',  ( 0.0000000000000000000, 0.0000000000000000000, 0.0000000000000000000 ) ) ;
#32 = CALENDAR_DATE ( 2021, 3, 9 ) ;
#33 = APPROVAL_PERSON_ORGANIZATION ( #50, #319, #203 ) ;
#34 = CALENDAR_DATE ( 2021, 3, 9 ) ;
#35 = ORIENTED_EDGE ( 'NONE', *, *, #188, .T. ) ;
#36 = APPLICATION_PROTOCOL_DEFINITION ( 'international standard', 'config_control_design', 1994, #287 ) ;
#37 = ORIENTED_EDGE ( 'NONE', *, *, #130, .T. ) ;
#38 = DIRECTION ( 'NONE',  ( -3.491481338843133355E-15, 1.224646799147353207E-16, -1.000000000000000000 ) ) ;
#39 = AXIS2_PLACEMENT_3D ( 'NONE', #165, #237, #289 ) ;
#40 = ADVANCED_FACE ( 'NONE', ( #202 ), #29, .F. ) ;
#41 = EDGE_LOOP ( 'NONE', ( #296, #56 ) ) ;
#42 = CALENDAR_DATE ( 2021, 3, 9 ) ;
#43 = EDGE_CURVE ( 'NONE', #321, #268, #104, .T. ) ;
#44 = DIRECTION ( 'NONE',  ( 1.798245827342160317E-15, -0.8571673007021098911, 0.5150380749100582634 ) ) ;
#45 = ORIENTED_EDGE ( 'NONE', *, *, #28, .F. ) ;
#46 = DIRECTION ( 'NONE',  ( 0.0000000000000000000, 1.000000000000000000, 0.0000000000000000000 ) ) ;
#47 = DIRECTION ( 'NONE',  ( 0.0000000000000000000, 1.000000000000000000, 0.0000000000000000000 ) ) ;
#48 = LOCAL_TIME ( 9, 21, 24.00000000000000000, #1 ) ;
#49 = CARTESIAN_POINT ( 'NONE',  ( 7.960204194457761950E-16, -6.499999999999994671, -7.960204194457817171E-16 ) ) ;
#50 = PERSON_AND_ORGANIZATION ( #51, #91 ) ;
#51 = PERSON ( 'UNSPECIFIED', 'UNSPECIFIED', 'UNSPECIFIED', ('UNSPECIFIED'), ('UNSPECIFIED'), ('UNSPECIFIED') ) ;
#52 = CIRCLE ( 'NONE', #313, 6.499999999999992895 ) ;
#53 = MANIFOLD_SOLID_BREP ( 'Corps-Déplacer/Copier1[1]', #83 ) ;
#54 = COORDINATED_UNIVERSAL_TIME_OFFSET ( 1, 0, .AHEAD. ) ;
#55 = CARTESIAN_POINT ( 'NONE',  ( 1.363630865077312111E-14, -6.499999999999993783, 3.905594023679179294 ) ) ;
#56 = ORIENTED_EDGE ( 'NONE', *, *, #282, .T. ) ;
#57 = CARTESIAN_POINT ( 'NONE',  ( 3.561310965619995770E-13, -1.249139735130300089E-14, 102.0000000000000000 ) ) ;
#58 = CYLINDRICAL_SURFACE ( 'NONE', #205, 6.499999999999994671 ) ;
#59 = COORDINATED_UNIVERSAL_TIME_OFFSET ( 1, 0, .AHEAD. ) ;
#60 = AXIS2_PLACEMENT_3D ( 'NONE', #82, #78, #26 ) ;
#61 = DATE_AND_TIME ( #34, #171 ) ;
#62 = CARTESIAN_POINT ( 'NONE',  ( 1.222018468595096801E-13, -4.286263797015736496E-15, 35.00000000000000000 ) ) ;
#63 = DIRECTION ( 'NONE',  ( 0.0000000000000000000, 1.000000000000000000, 0.0000000000000000000 ) ) ;
#64 = PERSON_AND_ORGANIZATION ( #51, #91 ) ;
#65 = APPROVAL_DATE_TIME ( #263, #319 ) ;
#66 = CLOSED_SHELL ( 'NONE', ( #329, #264, #170, #24, #206 ) ) ;
#67 = FACE_OUTER_BOUND ( 'NONE', #231, .T. ) ;
#68 = UNCERTAINTY_MEASURE_WITH_UNIT (LENGTH_MEASURE( 1.000000000000000082E-05 ), #292, 'distance_accuracy_value', 'NONE');
#69 = CIRCLE ( 'NONE', #154, 6.500000000000004441 ) ;
#70 = DIRECTION ( 'NONE',  ( -2.468850131082266527E-15, 0.7071067811865473507, -0.7071067811865477948 ) ) ;
#71 = DIRECTION ( 'NONE',  ( -3.491481338843133355E-15, 1.224646799147353207E-16, -1.000000000000000000 ) ) ;
#72 = ORIENTED_EDGE ( 'NONE', *, *, #15, .F. ) ;
#73 = EDGE_CURVE ( 'NONE', #320, #235, #310, .T. ) ;
#74 = ORIENTED_EDGE ( 'NONE', *, *, #158, .T. ) ;
#75 = DIRECTION ( 'NONE',  ( -4.740750632337816383E-31, -1.000000000000000000, -1.334402673828314572E-16 ) ) ;
#76 = CARTESIAN_POINT ( 'NONE',  ( 1.222018468595096801E-13, 6.499999999999992006, 35.00000000000000000 ) ) ;
#77 = AXIS2_PLACEMENT_3D ( 'NONE', #23, #224, #3 ) ;
#78 = DIRECTION ( 'NONE',  ( 3.491481338843133355E-15, -1.224646799147353207E-16, 1.000000000000000000 ) ) ;
#79 = DIRECTION ( 'NONE',  ( 0.0000000000000000000, 1.000000000000000000, 0.0000000000000000000 ) ) ;
#80 = DIRECTION ( 'NONE',  ( 1.903218546456022717E-15, 0.8571673007021097801, 0.5150380749100585964 ) ) ;
#81 = CARTESIAN_POINT ( 'NONE',  ( 0.0000000000000000000, 0.0000000000000000000, 0.0000000000000000000 ) ) ;
#82 = CARTESIAN_POINT ( 'NONE',  ( 1.222018468595096801E-13, 4.874219293651027920E-32, 35.00000000000000000 ) ) ;
#83 = CLOSED_SHELL ( 'NONE', ( #288, #121, #93, #192, #213, #40 ) ) ;
#84 = APPROVAL_STATUS ( 'not_yet_approved' ) ;
#85 = APPROVAL ( #84, 'UNSPECIFIED' ) ;
#86 = DIRECTION ( 'NONE',  ( 0.0000000000000000000, 1.000000000000000000, 0.0000000000000000000 ) ) ;
#87 = SECURITY_CLASSIFICATION_LEVEL ( 'unclassified' ) ;
#88 = ORIENTED_EDGE ( 'NONE', *, *, #113, .T. ) ;
#89 = AXIS2_PLACEMENT_3D ( 'NONE', #279, #25, #259 ) ;
#90 = VERTEX_POINT ( 'NONE', #127 ) ;
#91 = ORGANIZATION ( 'UNSPECIFIED', 'UNSPECIFIED', '' ) ;
#92 = DATE_AND_TIME ( #238, #323 ) ;
#93 = ADVANCED_FACE ( 'NONE', ( #312 ), #156, .F. ) ;
#94 = EDGE_LOOP ( 'NONE', ( #109, #272, #125 ) ) ;
#95 = ORIENTED_EDGE ( 'NONE', *, *, #28, .T. ) ;
#96 = DIRECTION ( 'NONE',  ( 0.0000000000000000000, 1.000000000000000000, 0.0000000000000000000 ) ) ;
#97 = AXIS2_PLACEMENT_3D ( 'NONE', #222, #71, #147 ) ;
#98 = EDGE_LOOP ( 'NONE', ( #35, #95, #137, #160 ) ) ;
#99 = CC_DESIGN_SECURITY_CLASSIFICATION ( #248, ( #122 ) ) ;
#100 = CARTESIAN_POINT ( 'NONE',  ( 1.363630865077312426E-14, -4.782973219867739884E-16, 3.905594023679180182 ) ) ;
#101 = ORIENTED_EDGE ( 'NONE', *, *, #305, .T. ) ;
#102 = CIRCLE ( 'NONE', #144, 5.500000000000004441 ) ;
#103 = DIRECTION ( 'NONE',  ( 4.275831445896958607E-31, 1.000000000000000000, 1.224646799147353207E-16 ) ) ;
#104 = LINE ( 'NONE', #207, #332 ) ;
#105 = CARTESIAN_POINT ( 'NONE',  ( 3.568046523015306077E-13, -5.500000000000015987, 102.0000000000000000 ) ) ;
#106 = DATE_TIME_ROLE ( 'creation_date' ) ;
#107 = PERSON_AND_ORGANIZATION ( #51, #91 ) ;
#108 = PRODUCT_DEFINITION ( 'UNKNOWN', '', #122, #270 ) ;
#109 = ORIENTED_EDGE ( 'NONE', *, *, #113, .F. ) ;
#110 = CIRCLE ( 'NONE', #17, 6.499999999999992895 ) ;
#111 = ORIENTED_EDGE ( 'NONE', *, *, #158, .F. ) ;
#112 = ORIENTED_EDGE ( 'NONE', *, *, #15, .T. ) ;
#113 = EDGE_CURVE ( 'NONE', #321, #277, #153, .T. ) ;
#114 = AXIS2_PLACEMENT_3D ( 'NONE', #100, #334, #75 ) ;
#115 = APPROVAL_STATUS ( 'not_yet_approved' ) ;
#116 = LINE ( 'NONE', #297, #151 ) ;
#117 = PRODUCT ( '21462', '21462', '', ( #301 ) ) ;
#118 = DIRECTION ( 'NONE',  ( 4.740750632337816383E-31, 1.000000000000000000, 1.334402673828314572E-16 ) ) ;
#119 = DIRECTION ( 'NONE',  ( -3.491481338843133355E-15, 1.224646799147353207E-16, -1.000000000000000000 ) ) ;
#120 = CARTESIAN_POINT ( 'NONE',  ( 1.363630865077312426E-14, -4.782973219867739884E-16, 3.905594023679180182 ) ) ;
#121 = ADVANCED_FACE ( 'NONE', ( #123 ), #311, .T. ) ;
#122 = PRODUCT_DEFINITION_FORMATION_WITH_SPECIFIED_SOURCE ( 'ANY', '', #117, .NOT_KNOWN. ) ;
#123 = FACE_OUTER_BOUND ( 'NONE', #98, .T. ) ;
#124 =( NAMED_UNIT ( * ) PLANE_ANGLE_UNIT ( ) SI_UNIT ( $, .RADIAN. ) );
#125 = ORIENTED_EDGE ( 'NONE', *, *, #234, .T. ) ;
#126 = CIRCLE ( 'NONE', #274, 5.500000000000004441 ) ;
#127 = CARTESIAN_POINT ( 'NONE',  ( 6.871509817458715696E-14, -6.500000000000000000, 35.00000000000000000 ) ) ;
#128 = CARTESIAN_POINT ( 'NONE',  ( 1.222018468595096801E-13, -4.286263797015736496E-15, 35.00000000000000000 ) ) ;
#129 = DIRECTION ( 'NONE',  ( -3.491481338843133355E-15, 1.224646799147353207E-16, -1.000000000000000000 ) ) ;
#130 = EDGE_CURVE ( 'NONE', #4, #183, #229, .T. ) ;
#131 = VECTOR ( 'NONE', #70, 999.9999999999998863 ) ;
#132 = DIRECTION ( 'NONE',  ( -3.491481338843133355E-15, 1.224646799147353207E-16, -1.000000000000000000 ) ) ;
#133 = PERSON_AND_ORGANIZATION_ROLE ( 'creator' ) ;
#134 = CIRCLE ( 'NONE', #217, 6.499999999999996447 ) ;
#135 = PERSON_AND_ORGANIZATION ( #51, #91 ) ;
#136 = CC_DESIGN_PERSON_AND_ORGANIZATION_ASSIGNMENT ( #107, #133, ( #108 ) ) ;
#137 = ORIENTED_EDGE ( 'NONE', *, *, #276, .F. ) ;
#138 = CARTESIAN_POINT ( 'NONE',  ( 1.363630865077312426E-14, -4.782973219867739884E-16, 3.905594023679180182 ) ) ;
#139 = ORIENTED_EDGE ( 'NONE', *, *, #20, .T. ) ;
#140 = VECTOR ( 'NONE', #257, 1000.000000000000000 ) ;
#141 = ORIENTED_EDGE ( 'NONE', *, *, #73, .F. ) ;
#142 = CC_DESIGN_PERSON_AND_ORGANIZATION_ASSIGNMENT ( #135, #179, ( #122 ) ) ;
#143 = AXIS2_PLACEMENT_3D ( 'NONE', #285, #152, #226 ) ;
#144 = AXIS2_PLACEMENT_3D ( 'NONE', #210, #119, #96 ) ;
#145 = CYLINDRICAL_SURFACE ( 'NONE', #97, 6.499999999999994671 ) ;
#146 = CARTESIAN_POINT ( 'NONE',  ( 3.561310965619995770E-13, -1.249139735130300089E-14, 102.0000000000000000 ) ) ;
#147 = DIRECTION ( 'NONE',  ( 4.275831445896958607E-31, 1.000000000000000000, 1.224646799147353207E-16 ) ) ;
#148 = DIRECTION ( 'NONE',  ( -3.491481338843133355E-15, 1.224646799147353207E-16, -1.000000000000000000 ) ) ;
#149 = VECTOR ( 'NONE', #315, 1000.000000000000000 ) ;
#150 = CARTESIAN_POINT ( 'NONE',  ( 7.960204194457769839E-16, -6.500000000000000888, -7.960204194457823087E-16 ) ) ;
#151 = VECTOR ( 'NONE', #38, 1000.000000000000000 ) ;
#152 = DIRECTION ( 'NONE',  ( 0.0000000000000000000, 0.0000000000000000000, 1.000000000000000000 ) ) ;
#153 = LINE ( 'NONE', #255, #304 ) ;
#154 = AXIS2_PLACEMENT_3D ( 'NONE', #280, #225, #47 ) ;
#155 = ORIENTED_EDGE ( 'NONE', *, *, #314, .T. ) ;
#156 = PLANE ( 'NONE',  #60 ) ;
#157 = COORDINATED_UNIVERSAL_TIME_OFFSET ( 1, 0, .AHEAD. ) ;
#158 = EDGE_CURVE ( 'NONE', #221, #90, #232, .T. ) ;
#159 = EDGE_LOOP ( 'NONE', ( #141, #155, #112, #249 ) ) ;
#160 = ORIENTED_EDGE ( 'NONE', *, *, #130, .F. ) ;
#161 = DATE_TIME_ROLE ( 'classification_date' ) ;
#162 = DIRECTION ( 'NONE',  ( -3.491481338843133355E-15, 1.224646799147353207E-16, -1.000000000000000000 ) ) ;
#163 = ORIENTED_EDGE ( 'NONE', *, *, #20, .F. ) ;
#164 = MANIFOLD_SOLID_BREP ( 'Corps-Déplacer/Copier1[2]', #66 ) ;
#165 = CARTESIAN_POINT ( 'NONE',  ( 1.222018468595096801E-13, 4.874219293651027920E-32, 35.00000000000000000 ) ) ;
#166 = ORIENTED_EDGE ( 'NONE', *, *, #73, .T. ) ;
#167 = CC_DESIGN_PERSON_AND_ORGANIZATION_ASSIGNMENT ( #269, #197, ( #117 ) ) ;
#168 = LINE ( 'NONE', #49, #266 ) ;
#169 = CARTESIAN_POINT ( 'NONE',  ( 1.443232907021890588E-14, 6.499999999999992006, 3.905594023679181070 ) ) ;
#170 = ADVANCED_FACE ( 'NONE', ( #230 ), #254, .T. ) ;
#171 = LOCAL_TIME ( 9, 21, 24.00000000000000000, #59 ) ;
#172 = DIRECTION ( 'NONE',  ( 0.0000000000000000000, 1.000000000000000000, 0.0000000000000000000 ) ) ;
#173 = EDGE_LOOP ( 'NONE', ( #302, #166, #256, #72 ) ) ;
#174 = ORIENTED_EDGE ( 'NONE', *, *, #220, .F. ) ;
#175 = LOCAL_TIME ( 9, 21, 24.00000000000000000, #54 ) ;
#176 = EDGE_LOOP ( 'NONE', ( #240, #218 ) ) ;
#177 = CARTESIAN_POINT ( 'NONE',  ( 2.779290439833023357E-30, 6.500000000000000888, 7.960204194457796463E-16 ) ) ;
#178 = AXIS2_PLACEMENT_3D ( 'NONE', #128, #148, #223 ) ;
#179 = PERSON_AND_ORGANIZATION_ROLE ( 'creator' ) ;
#180 = APPROVAL ( #115, 'UNSPECIFIED' ) ;
#181 = ORIENTED_EDGE ( 'NONE', *, *, #241, .T. ) ;
#182 = PERSON_AND_ORGANIZATION ( #51, #91 ) ;
#183 = VERTEX_POINT ( 'NONE', #76 ) ;
#184 = DIRECTION ( 'NONE',  ( -3.491481338843133355E-15, 1.224646799147353207E-16, -1.000000000000000000 ) ) ;
#185 = CC_DESIGN_APPROVAL ( #319, ( #108 ) ) ;
#186 = APPROVAL_DATE_TIME ( #316, #180 ) ;
#187 = CARTESIAN_POINT ( 'NONE',  ( 1.363630865077312426E-14, -4.782973219867739884E-16, 3.905594023679180182 ) ) ;
#188 = EDGE_CURVE ( 'NONE', #4, #235, #69, .T. ) ;
#189 = VERTEX_POINT ( 'NONE', #335 ) ;
#190 = CIRCLE ( 'NONE', #204, 6.499999999999996447 ) ;
#191 = CIRCLE ( 'NONE', #89, 6.500000000000004441 ) ;
#192 = ADVANCED_FACE ( 'NONE', ( #216 ), #7, .T. ) ;
#193 = DIRECTION ( 'NONE',  ( -4.740750632337816383E-31, -1.000000000000000000, -1.334402673828314572E-16 ) ) ;
#194 = CONICAL_SURFACE ( 'NONE', #19, 6.499999999999992895, 1.029744258676649649 ) ;
#195 = AXIS2_PLACEMENT_3D ( 'NONE', #196, #244, #260 ) ;
#196 = CARTESIAN_POINT ( 'NONE',  ( 0.0000000000000000000, 0.0000000000000000000, 0.0000000000000000000 ) ) ;
#197 = PERSON_AND_ORGANIZATION_ROLE ( 'design_owner' ) ;
#198 = LINE ( 'NONE', #150, #140 ) ;
#199 = CC_DESIGN_DATE_AND_TIME_ASSIGNMENT ( #293, #106, ( #108 ) ) ;
#200 = FACE_OUTER_BOUND ( 'NONE', #173, .T. ) ;
#201 = AXIS2_PLACEMENT_3D ( 'NONE', #57, #184, #86 ) ;
#202 = FACE_OUTER_BOUND ( 'NONE', #176, .T. ) ;
#203 = APPROVAL_ROLE ( '' ) ;
#204 = AXIS2_PLACEMENT_3D ( 'NONE', #62, #162, #79 ) ;
#205 = AXIS2_PLACEMENT_3D ( 'NONE', #261, #212, #318 ) ;
#206 = ADVANCED_FACE ( 'NONE', ( #327 ), #324, .T. ) ;
#207 = CARTESIAN_POINT ( 'NONE',  ( 1.443232907021890588E-14, 6.499999999999992006, 3.905594023679181070 ) ) ;
#208 = CALENDAR_DATE ( 2021, 3, 9 ) ;
#209 = CARTESIAN_POINT ( 'NONE',  ( 3.561310965619995770E-13, 4.124339402320093642E-32, 102.0000000000000000 ) ) ;
#210 = CARTESIAN_POINT ( 'NONE',  ( 3.561310965619995770E-13, -1.249139735130300089E-14, 102.0000000000000000 ) ) ;
#211 = CC_DESIGN_APPROVAL ( #180, ( #248 ) ) ;
#212 = DIRECTION ( 'NONE',  ( -3.491481338843133355E-15, 1.224646799147353207E-16, -1.000000000000000000 ) ) ;
#213 = ADVANCED_FACE ( 'NONE', ( #317 ), #291, .T. ) ;
#214 = EDGE_LOOP ( 'NONE', ( #267, #88, #242 ) ) ;
#215 = PERSON_AND_ORGANIZATION ( #51, #91 ) ;
#216 = FACE_OUTER_BOUND ( 'NONE', #299, .T. ) ;
#217 = AXIS2_PLACEMENT_3D ( 'NONE', #5, #325, #63 ) ;
#218 = ORIENTED_EDGE ( 'NONE', *, *, #314, .F. ) ;
#219 = AXIS2_PLACEMENT_3D ( 'NONE', #81, #250, #251 ) ;
#220 = EDGE_CURVE ( 'NONE', #277, #268, #52, .T. ) ;
#221 = VERTEX_POINT ( 'NONE', #8 ) ;
#222 = CARTESIAN_POINT ( 'NONE',  ( 0.0000000000000000000, 0.0000000000000000000, 0.0000000000000000000 ) ) ;
#223 = DIRECTION ( 'NONE',  ( 0.0000000000000000000, 1.000000000000000000, 0.0000000000000000000 ) ) ;
#224 = DIRECTION ( 'NONE',  ( -3.491481338843133355E-15, 1.224646799147353207E-16, -1.000000000000000000 ) ) ;
#225 = DIRECTION ( 'NONE',  ( -3.491481338843133355E-15, 1.224646799147353207E-16, -1.000000000000000000 ) ) ;
#226 = DIRECTION ( 'NONE',  ( 1.000000000000000000, 0.0000000000000000000, 0.0000000000000000000 ) ) ;
#227 = APPROVAL_PERSON_ORGANIZATION ( #322, #85, #14 ) ;
#228 = DIRECTION ( 'NONE',  ( -3.491481338843133355E-15, 1.224646799147353207E-16, -1.000000000000000000 ) ) ;
#229 = LINE ( 'NONE', #177, #18 ) ;
#230 = FACE_OUTER_BOUND ( 'NONE', #214, .T. ) ;
#231 = EDGE_LOOP ( 'NONE', ( #74, #139, #16, #328 ) ) ;
#232 = CIRCLE ( 'NONE', #178, 6.499999999999996447 ) ;
#233 = DIRECTION ( 'NONE',  ( 4.740750632337816383E-31, 1.000000000000000000, 1.334402673828314572E-16 ) ) ;
#234 = EDGE_CURVE ( 'NONE', #268, #277, #110, .T. ) ;
#235 = VERTEX_POINT ( 'NONE', #13 ) ;
#236 = APPROVAL_ROLE ( '' ) ;
#237 = DIRECTION ( 'NONE',  ( 3.491481338843133355E-15, -1.224646799147353207E-16, 1.000000000000000000 ) ) ;
#238 = CALENDAR_DATE ( 2021, 3, 9 ) ;
#239 = DIRECTION ( 'NONE',  ( -3.491481338843133355E-15, 1.224646799147353207E-16, -1.000000000000000000 ) ) ;
#240 = ORIENTED_EDGE ( 'NONE', *, *, #271, .F. ) ;
#241 = EDGE_CURVE ( 'NONE', #221, #268, #116, .T. ) ;
#242 = ORIENTED_EDGE ( 'NONE', *, *, #220, .T. ) ;
#243 = ADVANCED_BREP_SHAPE_REPRESENTATION ( '21462', ( #53, #164, #143 ), #22 ) ;
#244 = DIRECTION ( 'NONE',  ( -3.491481338843133355E-15, 1.224646799147353207E-16, -1.000000000000000000 ) ) ;
#245 = CC_DESIGN_DATE_AND_TIME_ASSIGNMENT ( #61, #161, ( #248 ) ) ;
#246 = CONICAL_SURFACE ( 'NONE', #262, 5.500000000000004441, 0.7853981633974479459 ) ;
#247 = CARTESIAN_POINT ( 'NONE',  ( 3.561310965619995770E-13, 5.499999999999992006, 102.0000000000000000 ) ) ;
#248 = SECURITY_CLASSIFICATION ( '', '', #87 ) ;
#249 = ORIENTED_EDGE ( 'NONE', *, *, #252, .F. ) ;
#250 = DIRECTION ( 'NONE',  ( -3.491481338843133355E-15, 1.224646799147353207E-16, -1.000000000000000000 ) ) ;
#251 = DIRECTION ( 'NONE',  ( 4.275831445896958607E-31, 1.000000000000000000, 1.224646799147353207E-16 ) ) ;
#252 = EDGE_CURVE ( 'NONE', #235, #4, #191, .T. ) ;
#253 = CARTESIAN_POINT ( 'NONE',  ( 3.561310965619995770E-13, -1.249139735130300089E-14, 102.0000000000000000 ) ) ;
#254 = CONICAL_SURFACE ( 'NONE', #114, 6.499999999999992895, 1.029744258676649649 ) ;
#255 = CARTESIAN_POINT ( 'NONE',  ( 1.363630865077312111E-14, -6.499999999999993783, 3.905594023679179294 ) ) ;
#256 = ORIENTED_EDGE ( 'NONE', *, *, #188, .F. ) ;
#257 = DIRECTION ( 'NONE',  ( -3.491481338843133355E-15, 1.224646799147353207E-16, -1.000000000000000000 ) ) ;
#258 = SHAPE_DEFINITION_REPRESENTATION ( #290, #243 ) ;
#259 = DIRECTION ( 'NONE',  ( 0.0000000000000000000, 1.000000000000000000, 0.0000000000000000000 ) ) ;
#260 = DIRECTION ( 'NONE',  ( 4.275831445896958607E-31, 1.000000000000000000, 1.224646799147353207E-16 ) ) ;
#261 = CARTESIAN_POINT ( 'NONE',  ( 0.0000000000000000000, 0.0000000000000000000, 0.0000000000000000000 ) ) ;
#262 = AXIS2_PLACEMENT_3D ( 'NONE', #253, #129, #172 ) ;
#263 = DATE_AND_TIME ( #42, #337 ) ;
#264 = ADVANCED_FACE ( 'NONE', ( #21 ), #194, .T. ) ;
#265 = PERSON_AND_ORGANIZATION_ROLE ( 'classification_officer' ) ;
#266 = VECTOR ( 'NONE', #273, 1000.000000000000000 ) ;
#267 = ORIENTED_EDGE ( 'NONE', *, *, #43, .F. ) ;
#268 = VERTEX_POINT ( 'NONE', #169 ) ;
#269 = PERSON_AND_ORGANIZATION ( #51, #91 ) ;
#270 = DESIGN_CONTEXT ( 'detailed design', #287, 'design' ) ;
#271 = EDGE_CURVE ( 'NONE', #189, #320, #126, .T. ) ;
#272 = ORIENTED_EDGE ( 'NONE', *, *, #43, .T. ) ;
#273 = DIRECTION ( 'NONE',  ( -3.491481338843133355E-15, 1.224646799147353207E-16, -1.000000000000000000 ) ) ;
#274 = AXIS2_PLACEMENT_3D ( 'NONE', #146, #228, #46 ) ;
#275 = FACE_OUTER_BOUND ( 'NONE', #300, .T. ) ;
#276 = EDGE_CURVE ( 'NONE', #183, #12, #308, .T. ) ;
#277 = VERTEX_POINT ( 'NONE', #55 ) ;
#278 = APPLICATION_PROTOCOL_DEFINITION ( 'international standard', 'config_control_design', 1994, #336 ) ;
#279 = CARTESIAN_POINT ( 'NONE',  ( 3.526396152231564563E-13, -1.236893267138826574E-14, 100.9999999999999858 ) ) ;
#280 = CARTESIAN_POINT ( 'NONE',  ( 3.526396152231564563E-13, -1.236893267138826574E-14, 100.9999999999999858 ) ) ;
#281 = CARTESIAN_POINT ( 'NONE',  ( 2.382167514607788592E-13, -6.500000000000000888, 35.00000000000000000 ) ) ;
#282 = EDGE_CURVE ( 'NONE', #12, #183, #190, .T. ) ;
#283 = DIRECTION ( 'NONE',  ( -3.491481338843133355E-15, 1.224646799147353207E-16, -1.000000000000000000 ) ) ;
#284 = APPROVAL_STATUS ( 'not_yet_approved' ) ;
#285 = CARTESIAN_POINT ( 'NONE',  ( 0.0000000000000000000, 0.0000000000000000000, 0.0000000000000000000 ) ) ;
#286 = DIRECTION ( 'NONE',  ( -3.491481338843133355E-15, 1.224646799147353207E-16, -1.000000000000000000 ) ) ;
#287 = APPLICATION_CONTEXT ( 'configuration controlled 3d designs of mechanical parts and assemblies' ) ;
#288 = ADVANCED_FACE ( 'NONE', ( #200 ), #246, .T. ) ;
#289 = DIRECTION ( 'NONE',  ( -4.275831445896958607E-31, -1.000000000000000000, -1.224646799147353207E-16 ) ) ;
#290 = PRODUCT_DEFINITION_SHAPE ( 'NONE', 'NONE',  #108 ) ;
#291 = CONICAL_SURFACE ( 'NONE', #201, 5.500000000000004441, 0.7853981633974479459 ) ;
#292 =( LENGTH_UNIT ( ) NAMED_UNIT ( * ) SI_UNIT ( .MILLI., .METRE. ) );
#293 = DATE_AND_TIME ( #32, #48 ) ;
#294 = CC_DESIGN_PERSON_AND_ORGANIZATION_ASSIGNMENT ( #182, #265, ( #248 ) ) ;
#295 = ORIENTED_EDGE ( 'NONE', *, *, #305, .F. ) ;
#296 = ORIENTED_EDGE ( 'NONE', *, *, #276, .T. ) ;
#297 = CARTESIAN_POINT ( 'NONE',  ( 2.779290439833020554E-30, 6.499999999999994671, 7.960204194457788574E-16 ) ) ;
#298 = AXIS2_PLACEMENT_3D ( 'NONE', #209, #283, #103 ) ;
#299 = EDGE_LOOP ( 'NONE', ( #45, #326, #37, #9 ) ) ;
#300 = EDGE_LOOP ( 'NONE', ( #163, #101, #181, #174 ) ) ;
#301 = MECHANICAL_CONTEXT ( 'NONE', #336, 'mechanical' ) ;
#302 = ORIENTED_EDGE ( 'NONE', *, *, #271, .T. ) ;
#303 = LINE ( 'NONE', #247, #131 ) ;
#304 = VECTOR ( 'NONE', #44, 1000.000000000000000 ) ;
#305 = EDGE_CURVE ( 'NONE', #90, #221, #134, .T. ) ;
#306 = CARTESIAN_POINT ( 'NONE',  ( 3.526396152231564563E-13, 6.499999999999992006, 100.9999999999999858 ) ) ;
#307 = CC_DESIGN_PERSON_AND_ORGANIZATION_ASSIGNMENT ( #215, #11, ( #122 ) ) ;
#308 = CIRCLE ( 'NONE', #77, 6.499999999999996447 ) ;
#309 = CC_DESIGN_APPROVAL ( #85, ( #122 ) ) ;
#310 = LINE ( 'NONE', #105, #149 ) ;
#311 = CYLINDRICAL_SURFACE ( 'NONE', #219, 6.500000000000000888 ) ;
#312 = FACE_OUTER_BOUND ( 'NONE', #41, .T. ) ;
#313 = AXIS2_PLACEMENT_3D ( 'NONE', #187, #132, #233 ) ;
#314 = EDGE_CURVE ( 'NONE', #320, #189, #102, .T. ) ;
#315 = DIRECTION ( 'NONE',  ( -2.382254525458717469E-15, -0.7071067811865471286, -0.7071067811865479058 ) ) ;
#316 = DATE_AND_TIME ( #208, #175 ) ;
#317 = FACE_OUTER_BOUND ( 'NONE', #159, .T. ) ;
#318 = DIRECTION ( 'NONE',  ( 4.275831445896958607E-31, 1.000000000000000000, 1.224646799147353207E-16 ) ) ;
#319 = APPROVAL ( #284, 'UNSPECIFIED' ) ;
#320 = VERTEX_POINT ( 'NONE', #6 ) ;
#321 = VERTEX_POINT ( 'NONE', #31 ) ;
#322 = PERSON_AND_ORGANIZATION ( #51, #91 ) ;
#323 = LOCAL_TIME ( 9, 21, 24.00000000000000000, #157 ) ;
#324 = PLANE ( 'NONE',  #39 ) ;
#325 = DIRECTION ( 'NONE',  ( -3.491481338843133355E-15, 1.224646799147353207E-16, -1.000000000000000000 ) ) ;
#326 = ORIENTED_EDGE ( 'NONE', *, *, #252, .T. ) ;
#327 = FACE_OUTER_BOUND ( 'NONE', #333, .T. ) ;
#328 = ORIENTED_EDGE ( 'NONE', *, *, #241, .F. ) ;
#329 = ADVANCED_FACE ( 'NONE', ( #67 ), #58, .T. ) ;
#330 =( NAMED_UNIT ( * ) SI_UNIT ( $, .STERADIAN. ) SOLID_ANGLE_UNIT ( ) );
#331 = DIRECTION ( 'NONE',  ( 3.491481338843133355E-15, -1.224646799147353207E-16, 1.000000000000000000 ) ) ;
#332 = VECTOR ( 'NONE', #80, 999.9999999999998863 ) ;
#333 = EDGE_LOOP ( 'NONE', ( #111, #295 ) ) ;
#334 = DIRECTION ( 'NONE',  ( 3.491481338843133355E-15, -1.224646799147353207E-16, 1.000000000000000000 ) ) ;
#335 = CARTESIAN_POINT ( 'NONE',  ( 3.561310965619995770E-13, 5.499999999999992006, 102.0000000000000000 ) ) ;
#336 = APPLICATION_CONTEXT ( 'configuration controlled 3d designs of mechanical parts and assemblies' ) ;
#337 = LOCAL_TIME ( 9, 21, 24.00000000000000000, #10 ) ;
ENDSEC;
END-ISO-10303-21;
