ISO-10303-21;
HEADER;
FILE_DESCRIPTION (( 'STEP AP203' ),
    '1' );
FILE_NAME ('21256.step',
    '2021-12-06T12:58:30',
    ( '' ),
    ( '' ),
    'SwSTEP 2.0',
    'SolidWorks 2019',
    '' );
FILE_SCHEMA (( 'CONFIG_CONTROL_DESIGN' ));
ENDSEC;

DATA;
#1 = PLANE ( 'NONE',  #157 ) ;
#2 = EDGE_LOOP ( 'NONE', ( #59 ) ) ;
#3 = PERSON_AND_ORGANIZATION_ROLE ( 'classification_officer' ) ;
#4 = EDGE_LOOP ( 'NONE', ( #16 ) ) ;
#5 = ADVANCED_BREP_SHAPE_REPRESENTATION ( '21256', ( #112, #10 ), #29 ) ;
#6 = CIRCLE ( 'NONE', #97, 40.00000000000000000 ) ;
#7 = PERSON_AND_ORGANIZATION ( #151, #47 ) ;
#8 = CARTESIAN_POINT ( 'NONE',  ( 0.0000000000000000000, 40.00000000000000000, 0.0000000000000000000 ) ) ;
#9 = PERSON_AND_ORGANIZATION ( #151, #47 ) ;
#10 = AXIS2_PLACEMENT_3D ( 'NONE', #162, #83, #95 ) ;
#11 = ADVANCED_FACE ( 'NONE', ( #132, #44 ), #88, .T. ) ;
#12 = LOCAL_TIME ( 13, 58, 30.00000000000000000, #104 ) ;
#13 = UNCERTAINTY_MEASURE_WITH_UNIT (LENGTH_MEASURE( 1.000000000000000082E-05 ), #25, 'distance_accuracy_value', 'NONE');
#14 = APPROVAL ( #62, 'UNSPECIFIED' ) ;
#15 = DIRECTION ( 'NONE',  ( 4.275831445896957731E-31, 1.000000000000000000, 1.224646799147353207E-16 ) ) ;
#16 = ORIENTED_EDGE ( 'NONE', *, *, #84, .T. ) ;
#17 = CC_DESIGN_PERSON_AND_ORGANIZATION_ASSIGNMENT ( #140, #22, ( #99 ) ) ;
#18 = VERTEX_POINT ( 'NONE', #90 ) ;
#19 = DIRECTION ( 'NONE',  ( -3.491481338843133355E-15, 1.224646799147353207E-16, -1.000000000000000000 ) ) ;
#20 = SECURITY_CLASSIFICATION ( '', '', #109 ) ;
#21 = CALENDAR_DATE ( 2021, 6, 12 ) ;
#22 = PERSON_AND_ORGANIZATION_ROLE ( 'design_supplier' ) ;
#23 = APPLICATION_PROTOCOL_DEFINITION ( 'international standard', 'config_control_design', 1994, #147 ) ;
#24 = DESIGN_CONTEXT ( 'detailed design', #147, 'design' ) ;
#25 =( LENGTH_UNIT ( ) NAMED_UNIT ( * ) SI_UNIT ( .MILLI., .METRE. ) );
#26 = AXIS2_PLACEMENT_3D ( 'NONE', #161, #136, #116 ) ;
#27 = EDGE_CURVE ( 'NONE', #18, #18, #69, .T. ) ;
#28 = APPROVAL_PERSON_ORGANIZATION ( #9, #14, #154 ) ;
#29 =( GEOMETRIC_REPRESENTATION_CONTEXT ( 3 ) GLOBAL_UNCERTAINTY_ASSIGNED_CONTEXT ( ( #13 ) ) GLOBAL_UNIT_ASSIGNED_CONTEXT ( ( #25, #67, #78 ) ) REPRESENTATION_CONTEXT ( 'NONE', 'WORKASPACE' ) );
#30 = FACE_BOUND ( 'NONE', #2, .T. ) ;
#31 = FACE_OUTER_BOUND ( 'NONE', #4, .T. ) ;
#32 = DIRECTION ( 'NONE',  ( 4.275831445896958607E-31, 1.000000000000000000, 1.224646799147353207E-16 ) ) ;
#33 = LOCAL_TIME ( 13, 58, 30.00000000000000000, #143 ) ;
#34 = EDGE_LOOP ( 'NONE', ( #150 ) ) ;
#35 = FACE_OUTER_BOUND ( 'NONE', #34, .T. ) ;
#36 = PERSON_AND_ORGANIZATION_ROLE ( 'design_owner' ) ;
#37 = CALENDAR_DATE ( 2021, 6, 12 ) ;
#38 = APPROVAL_STATUS ( 'not_yet_approved' ) ;
#39 = PRODUCT_DEFINITION_SHAPE ( 'NONE', 'NONE',  #155 ) ;
#40 = CIRCLE ( 'NONE', #91, 11.00000000000000000 ) ;
#41 = DIRECTION ( 'NONE',  ( 4.275831445896957731E-31, 1.000000000000000000, 1.224646799147353207E-16 ) ) ;
#42 = CARTESIAN_POINT ( 'NONE',  ( -1.710332578358783302E-29, 5.999039130647430431E-31, -4.898587196589413026E-15 ) ) ;
#43 = DIRECTION ( 'NONE',  ( -3.491481338843133355E-15, 1.224646799147353207E-16, -1.000000000000000000 ) ) ;
#44 = FACE_OUTER_BOUND ( 'NONE', #134, .T. ) ;
#45 = PERSON_AND_ORGANIZATION_ROLE ( 'creator' ) ;
#46 = CC_DESIGN_PERSON_AND_ORGANIZATION_ASSIGNMENT ( #72, #3, ( #20 ) ) ;
#47 = ORGANIZATION ( 'UNSPECIFIED', 'UNSPECIFIED', '' ) ;
#48 = PRODUCT ( '21256', '21256', '', ( #68 ) ) ;
#49 = ORIENTED_EDGE ( 'NONE', *, *, #65, .T. ) ;
#50 = CIRCLE ( 'NONE', #156, 11.00000000000000000 ) ;
#51 = CYLINDRICAL_SURFACE ( 'NONE', #71, 11.00000000000000000 ) ;
#52 = DIRECTION ( 'NONE',  ( -4.275831445896958607E-31, -1.000000000000000000, -1.224646799147353207E-16 ) ) ;
#53 = ORIENTED_EDGE ( 'NONE', *, *, #27, .F. ) ;
#54 = COORDINATED_UNIVERSAL_TIME_OFFSET ( 1, 0, .AHEAD. ) ;
#55 = PERSON_AND_ORGANIZATION ( #151, #47 ) ;
#56 = FACE_OUTER_BOUND ( 'NONE', #130, .T. ) ;
#57 = APPROVAL ( #38, 'UNSPECIFIED' ) ;
#58 = EDGE_LOOP ( 'NONE', ( #133 ) ) ;
#59 = ORIENTED_EDGE ( 'NONE', *, *, #84, .F. ) ;
#60 = APPROVAL_ROLE ( '' ) ;
#61 = DIRECTION ( 'NONE',  ( -3.491481338843133355E-15, 1.224646799147353207E-16, -1.000000000000000000 ) ) ;
#62 = APPROVAL_STATUS ( 'not_yet_approved' ) ;
#63 = LOCAL_TIME ( 13, 58, 30.00000000000000000, #123 ) ;
#64 = DATE_AND_TIME ( #21, #63 ) ;
#65 = EDGE_CURVE ( 'NONE', #149, #149, #40, .T. ) ;
#66 = VERTEX_POINT ( 'NONE', #82 ) ;
#67 =( NAMED_UNIT ( * ) PLANE_ANGLE_UNIT ( ) SI_UNIT ( $, .RADIAN. ) );
#68 = MECHANICAL_CONTEXT ( 'NONE', #137, 'mechanical' ) ;
#69 = CIRCLE ( 'NONE', #26, 40.00000000000000000 ) ;
#70 = ADVANCED_FACE ( 'NONE', ( #35, #30 ), #1, .T. ) ;
#71 = AXIS2_PLACEMENT_3D ( 'NONE', #146, #144, #15 ) ;
#72 = PERSON_AND_ORGANIZATION ( #151, #47 ) ;
#73 = EDGE_LOOP ( 'NONE', ( #169 ) ) ;
#74 = CARTESIAN_POINT ( 'NONE',  ( 0.0000000000000000000, 0.0000000000000000000, 0.0000000000000000000 ) ) ;
#75 = DATE_AND_TIME ( #128, #33 ) ;
#76 = EDGE_LOOP ( 'NONE', ( #49 ) ) ;
#77 = CARTESIAN_POINT ( 'NONE',  ( 1.396592535537253342E-14, 11.00000000000000000, 4.000000000000000000 ) ) ;
#78 =( NAMED_UNIT ( * ) SI_UNIT ( $, .STERADIAN. ) SOLID_ANGLE_UNIT ( ) );
#79 = CARTESIAN_POINT ( 'NONE',  ( -6.199955596550590943E-30, 11.00000000000000000, -1.775737858763662409E-15 ) ) ;
#80 = DATE_TIME_ROLE ( 'creation_date' ) ;
#81 = APPROVAL_DATE_TIME ( #124, #57 ) ;
#82 = CARTESIAN_POINT ( 'NONE',  ( 0.0000000000000000000, 11.00000000000000000, 0.0000000000000000000 ) ) ;
#83 = DIRECTION ( 'NONE',  ( 0.0000000000000000000, 0.0000000000000000000, 1.000000000000000000 ) ) ;
#84 = EDGE_CURVE ( 'NONE', #66, #66, #50, .T. ) ;
#85 = CC_DESIGN_PERSON_AND_ORGANIZATION_ASSIGNMENT ( #135, #45, ( #155 ) ) ;
#86 = CC_DESIGN_APPROVAL ( #14, ( #99 ) ) ;
#87 = SHAPE_DEFINITION_REPRESENTATION ( #39, #5 ) ;
#88 = PLANE ( 'NONE',  #163 ) ;
#89 = FACE_OUTER_BOUND ( 'NONE', #73, .T. ) ;
#90 = CARTESIAN_POINT ( 'NONE',  ( 1.396592535537253342E-14, 40.00000000000000000, 4.000000000000000000 ) ) ;
#91 = AXIS2_PLACEMENT_3D ( 'NONE', #120, #19, #92 ) ;
#92 = DIRECTION ( 'NONE',  ( 5.602705292762867777E-31, 1.000000000000000000, 1.577021341797097314E-16 ) ) ;
#93 = APPROVAL_DATE_TIME ( #138, #14 ) ;
#94 = LOCAL_TIME ( 13, 58, 30.00000000000000000, #165 ) ;
#95 = DIRECTION ( 'NONE',  ( 1.000000000000000000, 0.0000000000000000000, 0.0000000000000000000 ) ) ;
#96 = CC_DESIGN_DATE_AND_TIME_ASSIGNMENT ( #64, #80, ( #155 ) ) ;
#97 = AXIS2_PLACEMENT_3D ( 'NONE', #42, #148, #32 ) ;
#98 = APPROVAL ( #100, 'UNSPECIFIED' ) ;
#99 = PRODUCT_DEFINITION_FORMATION_WITH_SPECIFIED_SOURCE ( 'ANY', '', #48, .NOT_KNOWN. ) ;
#100 = APPROVAL_STATUS ( 'not_yet_approved' ) ;
#101 = CARTESIAN_POINT ( 'NONE',  ( 1.396592535537252711E-14, 11.00000000000000000, 3.999999999999998224 ) ) ;
#102 = ADVANCED_FACE ( 'NONE', ( #31, #107 ), #51, .F. ) ;
#103 = DIRECTION ( 'NONE',  ( 4.275831445896958607E-31, 1.000000000000000000, 1.224646799147353207E-16 ) ) ;
#104 = COORDINATED_UNIVERSAL_TIME_OFFSET ( 1, 0, .AHEAD. ) ;
#105 = DIRECTION ( 'NONE',  ( 4.275831445896958607E-31, 1.000000000000000000, 1.224646799147353207E-16 ) ) ;
#106 = DATE_TIME_ROLE ( 'classification_date' ) ;
#107 = FACE_OUTER_BOUND ( 'NONE', #58, .T. ) ;
#108 = PERSON_AND_ORGANIZATION_ROLE ( 'creator' ) ;
#109 = SECURITY_CLASSIFICATION_LEVEL ( 'unclassified' ) ;
#110 = APPROVAL_PERSON_ORGANIZATION ( #145, #98, #60 ) ;
#111 = CYLINDRICAL_SURFACE ( 'NONE', #125, 40.00000000000000000 ) ;
#112 = MANIFOLD_SOLID_BREP ( 'Corps-Déplacer/Copier1', #118 ) ;
#113 = CC_DESIGN_PERSON_AND_ORGANIZATION_ASSIGNMENT ( #55, #108, ( #99 ) ) ;
#114 = CALENDAR_DATE ( 2021, 6, 12 ) ;
#115 = CC_DESIGN_SECURITY_CLASSIFICATION ( #20, ( #99 ) ) ;
#116 = DIRECTION ( 'NONE',  ( 4.622231866529366047E-31, 1.000000000000000000, 1.301042606982605321E-16 ) ) ;
#117 = DIRECTION ( 'NONE',  ( 3.491481338843133355E-15, -1.224646799147353207E-16, 1.000000000000000000 ) ) ;
#118 = CLOSED_SHELL ( 'NONE', ( #70, #129, #11, #102 ) ) ;
#119 = APPROVAL_DATE_TIME ( #160, #98 ) ;
#120 = CARTESIAN_POINT ( 'NONE',  ( 1.396592535537252711E-14, -4.898587196589410857E-16, 3.999999999999998224 ) ) ;
#121 = CALENDAR_DATE ( 2021, 6, 12 ) ;
#122 = CC_DESIGN_DATE_AND_TIME_ASSIGNMENT ( #75, #106, ( #20 ) ) ;
#123 = COORDINATED_UNIVERSAL_TIME_OFFSET ( 1, 0, .AHEAD. ) ;
#124 = DATE_AND_TIME ( #37, #94 ) ;
#125 = AXIS2_PLACEMENT_3D ( 'NONE', #74, #43, #103 ) ;
#126 = CC_DESIGN_PERSON_AND_ORGANIZATION_ASSIGNMENT ( #7, #36, ( #48 ) ) ;
#127 = APPROVAL_PERSON_ORGANIZATION ( #141, #57, #164 ) ;
#128 = CALENDAR_DATE ( 2021, 6, 12 ) ;
#129 = ADVANCED_FACE ( 'NONE', ( #56, #89 ), #111, .T. ) ;
#130 = EDGE_LOOP ( 'NONE', ( #159 ) ) ;
#131 = DIRECTION ( 'NONE',  ( -3.491481338843133355E-15, 1.224646799147353207E-16, -1.000000000000000000 ) ) ;
#132 = FACE_BOUND ( 'NONE', #76, .T. ) ;
#133 = ORIENTED_EDGE ( 'NONE', *, *, #65, .F. ) ;
#134 = EDGE_LOOP ( 'NONE', ( #53 ) ) ;
#135 = PERSON_AND_ORGANIZATION ( #151, #47 ) ;
#136 = DIRECTION ( 'NONE',  ( -3.491481338843133355E-15, 1.224646799147353207E-16, -1.000000000000000000 ) ) ;
#137 = APPLICATION_CONTEXT ( 'configuration controlled 3d designs of mechanical parts and assemblies' ) ;
#138 = DATE_AND_TIME ( #121, #167 ) ;
#139 = CC_DESIGN_APPROVAL ( #98, ( #20 ) ) ;
#140 = PERSON_AND_ORGANIZATION ( #151, #47 ) ;
#141 = PERSON_AND_ORGANIZATION ( #151, #47 ) ;
#142 = CC_DESIGN_APPROVAL ( #57, ( #155 ) ) ;
#143 = COORDINATED_UNIVERSAL_TIME_OFFSET ( 1, 0, .AHEAD. ) ;
#144 = DIRECTION ( 'NONE',  ( -3.491481338843133355E-15, 1.224646799147353207E-16, -1.000000000000000000 ) ) ;
#145 = PERSON_AND_ORGANIZATION ( #151, #47 ) ;
#146 = CARTESIAN_POINT ( 'NONE',  ( 0.0000000000000000000, 0.0000000000000000000, 0.0000000000000000000 ) ) ;
#147 = APPLICATION_CONTEXT ( 'configuration controlled 3d designs of mechanical parts and assemblies' ) ;
#148 = DIRECTION ( 'NONE',  ( -3.491481338843133355E-15, 1.224646799147353207E-16, -1.000000000000000000 ) ) ;
#149 = VERTEX_POINT ( 'NONE', #77 ) ;
#150 = ORIENTED_EDGE ( 'NONE', *, *, #152, .T. ) ;
#151 = PERSON ( 'UNSPECIFIED', 'UNSPECIFIED', 'UNSPECIFIED', ('UNSPECIFIED'), ('UNSPECIFIED'), ('UNSPECIFIED') ) ;
#152 = EDGE_CURVE ( 'NONE', #153, #153, #6, .T. ) ;
#153 = VERTEX_POINT ( 'NONE', #8 ) ;
#154 = APPROVAL_ROLE ( '' ) ;
#155 = PRODUCT_DEFINITION ( 'UNKNOWN', '', #99, #24 ) ;
#156 = AXIS2_PLACEMENT_3D ( 'NONE', #158, #131, #41 ) ;
#157 = AXIS2_PLACEMENT_3D ( 'NONE', #79, #61, #105 ) ;
#158 = CARTESIAN_POINT ( 'NONE',  ( -4.703414590486653942E-30, 1.649735760928043369E-31, -1.347111479062088405E-15 ) ) ;
#159 = ORIENTED_EDGE ( 'NONE', *, *, #27, .T. ) ;
#160 = DATE_AND_TIME ( #114, #12 ) ;
#161 = CARTESIAN_POINT ( 'NONE',  ( 1.396592535537251607E-14, -4.898587196589406912E-16, 3.999999999999994671 ) ) ;
#162 = CARTESIAN_POINT ( 'NONE',  ( 0.0000000000000000000, 0.0000000000000000000, 0.0000000000000000000 ) ) ;
#163 = AXIS2_PLACEMENT_3D ( 'NONE', #101, #117, #52 ) ;
#164 = APPROVAL_ROLE ( '' ) ;
#165 = COORDINATED_UNIVERSAL_TIME_OFFSET ( 1, 0, .AHEAD. ) ;
#166 = APPLICATION_PROTOCOL_DEFINITION ( 'international standard', 'config_control_design', 1994, #137 ) ;
#167 = LOCAL_TIME ( 13, 58, 30.00000000000000000, #54 ) ;
#168 = PRODUCT_RELATED_PRODUCT_CATEGORY ( 'detail', '', ( #48 ) ) ;
#169 = ORIENTED_EDGE ( 'NONE', *, *, #152, .F. ) ;
ENDSEC;
END-ISO-10303-21;
