ISO-10303-21;
HEADER;
FILE_DESCRIPTION (( 'STEP AP203' ),
    '1' );
FILE_NAME ('21228.step',
    '2021-10-08T05:53:44',
    ( '' ),
    ( '' ),
    'SwSTEP 2.0',
    'SolidWorks 2019',
    '' );
FILE_SCHEMA (( 'CONFIG_CONTROL_DESIGN' ));
ENDSEC;

DATA;
#1 = ORIENTED_EDGE ( 'NONE', *, *, #131, .F. ) ;
#2 = COORDINATED_UNIVERSAL_TIME_OFFSET ( 1, 0, .AHEAD. ) ;
#3 = AXIS2_PLACEMENT_3D ( 'NONE', #180, #198, #99 ) ;
#4 = PRODUCT ( '21228', '21228', '', ( #108 ) ) ;
#5 = APPROVAL_DATE_TIME ( #93, #213 ) ;
#6 = FACE_OUTER_BOUND ( 'NONE', #177, .T. ) ;
#7 = CC_DESIGN_SECURITY_CLASSIFICATION ( #37, ( #88 ) ) ;
#8 = CARTESIAN_POINT ( 'NONE',  ( 5.039519227129124573E-16, -1.767625397874855232E-17, 0.1443375672974072932 ) ) ;
#9 = DIRECTION ( 'NONE',  ( 4.275831445896958607E-31, 1.000000000000000000, 1.224646799147353207E-16 ) ) ;
#10 = DIRECTION ( 'NONE',  ( 0.0000000000000000000, 1.000000000000000000, 0.0000000000000000000 ) ) ;
#11 = FACE_BOUND ( 'NONE', #98, .T. ) ;
#12 = DIRECTION ( 'NONE',  ( 4.275831445896958607E-31, 1.000000000000000000, 1.224646799147353207E-16 ) ) ;
#13 = MANIFOLD_SOLID_BREP ( 'Corps-Déplacer/Copier1[2]', #170 ) ;
#14 = APPROVAL_ROLE ( '' ) ;
#15 = MANIFOLD_SOLID_BREP ( 'Corps-Déplacer/Copier1[1]', #115 ) ;
#16 = ORGANIZATION ( 'UNSPECIFIED', 'UNSPECIFIED', '' ) ;
#17 = DATE_AND_TIME ( #169, #57 ) ;
#18 = CARTESIAN_POINT ( 'NONE',  ( 0.0000000000000000000, 0.0000000000000000000, 0.0000000000000000000 ) ) ;
#19 = CARTESIAN_POINT ( 'NONE',  ( 5.039519227129125559E-16, 0.2499999999999985012, 0.1443375672974073209 ) ) ;
#20 = CALENDAR_DATE ( 2021, 8, 10 ) ;
#21 = PERSON_AND_ORGANIZATION ( #95, #16 ) ;
#22 = PERSON_AND_ORGANIZATION_ROLE ( 'classification_officer' ) ;
#23 = DATE_AND_TIME ( #205, #144 ) ;
#24 = PRODUCT_RELATED_PRODUCT_CATEGORY ( 'detail', '', ( #4 ) ) ;
#25 = CARTESIAN_POINT ( 'NONE',  ( 1.047444401652940007E-13, 2.999519565323651582E-33, 30.00000000000000000 ) ) ;
#26 = CYLINDRICAL_SURFACE ( 'NONE', #208, 0.4999999999999973910 ) ;
#27 = AXIS2_PLACEMENT_3D ( 'NONE', #29, #85, #83 ) ;
#28 = DIRECTION ( 'NONE',  ( -3.491481338843133355E-15, 1.224646799147353207E-16, -1.000000000000000000 ) ) ;
#29 = CARTESIAN_POINT ( 'NONE',  ( 1.722352179293287751E-14, -6.041198215525559406E-16, 4.933012701892232954 ) ) ;
#30 = CC_DESIGN_DATE_AND_TIME_ASSIGNMENT ( #173, #189, ( #204 ) ) ;
#31 = DIRECTION ( 'NONE',  ( -3.491481338843133355E-15, 1.224646799147353207E-16, -1.000000000000000000 ) ) ;
#32 = CIRCLE ( 'NONE', #73, 0.2499999999999985012 ) ;
#33 = APPROVAL_PERSON_ORGANIZATION ( #59, #63, #203 ) ;
#34 = APPLICATION_PROTOCOL_DEFINITION ( 'international standard', 'config_control_design', 1994, #44 ) ;
#35 = VERTEX_POINT ( 'NONE', #58 ) ;
#36 = ADVANCED_FACE ( 'NONE', ( #209 ), #84, .T. ) ;
#37 = SECURITY_CLASSIFICATION ( '', '', #134 ) ;
#38 = CARTESIAN_POINT ( 'NONE',  ( 1.043952920314096936E-13, 0.4999999999999952260, 29.90000000000000213 ) ) ;
#39 = EDGE_CURVE ( 'NONE', #107, #107, #32, .T. ) ;
#40 = CYLINDRICAL_SURFACE ( 'NONE', #96, 0.2499999999999986955 ) ;
#41 = APPROVAL_ROLE ( '' ) ;
#42 = CC_DESIGN_PERSON_AND_ORGANIZATION_ASSIGNMENT ( #207, #22, ( #37 ) ) ;
#43 = ORIENTED_EDGE ( 'NONE', *, *, #121, .T. ) ;
#44 = APPLICATION_CONTEXT ( 'configuration controlled 3d designs of mechanical parts and assemblies' ) ;
#45 = COORDINATED_UNIVERSAL_TIME_OFFSET ( 1, 0, .AHEAD. ) ;
#46 = ADVANCED_FACE ( 'NONE', ( #148 ), #139, .F. ) ;
#47 = ORIENTED_EDGE ( 'NONE', *, *, #159, .F. ) ;
#48 = FACE_OUTER_BOUND ( 'NONE', #210, .T. ) ;
#49 = DIRECTION ( 'NONE',  ( 0.0000000000000000000, 1.000000000000000000, 0.0000000000000000000 ) ) ;
#50 = ADVANCED_FACE ( 'NONE', ( #103, #11 ), #195, .T. ) ;
#51 = DIRECTION ( 'NONE',  ( -3.491481338843133355E-15, 1.224646799147353207E-16, -1.000000000000000000 ) ) ;
#52 = VERTEX_POINT ( 'NONE', #38 ) ;
#53 = ADVANCED_BREP_SHAPE_REPRESENTATION ( '21228', ( #15, #13, #151 ), #192 ) ;
#54 = DIRECTION ( 'NONE',  ( -3.491481338843133355E-15, 1.224646799147353207E-16, -1.000000000000000000 ) ) ;
#55 = DIRECTION ( 'NONE',  ( 3.491481338843133355E-15, -1.224646799147353207E-16, 1.000000000000000000 ) ) ;
#56 = PERSON_AND_ORGANIZATION ( #95, #16 ) ;
#57 = LOCAL_TIME ( 7, 53, 44.00000000000000000, #109 ) ;
#58 = CARTESIAN_POINT ( 'NONE',  ( 1.396592535537253342E-14, 0.2499999999999983902, 4.000000000000000000 ) ) ;
#59 = PERSON_AND_ORGANIZATION ( #95, #16 ) ;
#60 = CALENDAR_DATE ( 2021, 8, 10 ) ;
#61 = DATE_TIME_ROLE ( 'classification_date' ) ;
#62 = PERSON_AND_ORGANIZATION_ROLE ( 'design_supplier' ) ;
#63 = APPROVAL ( #94, 'UNSPECIFIED' ) ;
#64 = ORIENTED_EDGE ( 'NONE', *, *, #39, .F. ) ;
#65 = DIRECTION ( 'NONE',  ( -3.851859888774494915E-31, -1.000000000000000000, -1.084202172485510967E-16 ) ) ;
#66 = FACE_OUTER_BOUND ( 'NONE', #138, .T. ) ;
#67 = AXIS2_PLACEMENT_3D ( 'NONE', #178, #81, #102 ) ;
#68 = APPROVAL_PERSON_ORGANIZATION ( #221, #150, #14 ) ;
#69 = ORIENTED_EDGE ( 'NONE', *, *, #39, .T. ) ;
#70 = DIRECTION ( 'NONE',  ( 3.491481338843133355E-15, -1.224646799147353207E-16, 1.000000000000000000 ) ) ;
#71 = PERSON_AND_ORGANIZATION_ROLE ( 'creator' ) ;
#72 = LOCAL_TIME ( 7, 53, 44.00000000000000000, #78 ) ;
#73 = AXIS2_PLACEMENT_3D ( 'NONE', #163, #212, #179 ) ;
#74 = APPROVAL_STATUS ( 'not_yet_approved' ) ;
#75 = PERSON_AND_ORGANIZATION ( #95, #16 ) ;
#76 = ADVANCED_FACE ( 'NONE', ( #136, #48 ), #26, .T. ) ;
#77 = AXIS2_PLACEMENT_3D ( 'NONE', #25, #194, #9 ) ;
#78 = COORDINATED_UNIVERSAL_TIME_OFFSET ( 1, 0, .AHEAD. ) ;
#79 = CC_DESIGN_PERSON_AND_ORGANIZATION_ASSIGNMENT ( #219, #71, ( #204 ) ) ;
#80 = APPLICATION_CONTEXT ( 'configuration controlled 3d designs of mechanical parts and assemblies' ) ;
#81 = DIRECTION ( 'NONE',  ( 3.491481338843133355E-15, -1.224646799147353207E-16, 1.000000000000000000 ) ) ;
#82 = DIRECTION ( 'NONE',  ( -3.491481338843133355E-15, 1.224646799147353207E-16, -1.000000000000000000 ) ) ;
#83 = DIRECTION ( 'NONE',  ( 0.0000000000000000000, 1.000000000000000000, 0.0000000000000000000 ) ) ;
#84 = PLANE ( 'NONE',  #67 ) ;
#85 = DIRECTION ( 'NONE',  ( -3.491481338843133355E-15, 1.224646799147353207E-16, -1.000000000000000000 ) ) ;
#86 = EDGE_CURVE ( 'NONE', #199, #199, #165, .T. ) ;
#87 = DIRECTION ( 'NONE',  ( 0.0000000000000000000, -1.000000000000000000, 0.0000000000000000000 ) ) ;
#88 = PRODUCT_DEFINITION_FORMATION_WITH_SPECIFIED_SOURCE ( 'ANY', '', #4, .NOT_KNOWN. ) ;
#89 = FACE_BOUND ( 'NONE', #152, .T. ) ;
#90 = FACE_OUTER_BOUND ( 'NONE', #158, .T. ) ;
#91 = DIRECTION ( 'NONE',  ( 1.000000000000000000, 0.0000000000000000000, 0.0000000000000000000 ) ) ;
#92 = APPROVAL_STATUS ( 'not_yet_approved' ) ;
#93 = DATE_AND_TIME ( #60, #176 ) ;
#94 = APPROVAL_STATUS ( 'not_yet_approved' ) ;
#95 = PERSON ( 'UNSPECIFIED', 'UNSPECIFIED', 'UNSPECIFIED', ('UNSPECIFIED'), ('UNSPECIFIED'), ('UNSPECIFIED') ) ;
#96 = AXIS2_PLACEMENT_3D ( 'NONE', #18, #54, #12 ) ;
#97 = COORDINATED_UNIVERSAL_TIME_OFFSET ( 1, 0, .AHEAD. ) ;
#98 = EDGE_LOOP ( 'NONE', ( #166 ) ) ;
#99 = DIRECTION ( 'NONE',  ( 0.0000000000000000000, 1.000000000000000000, 0.0000000000000000000 ) ) ;
#100 = CIRCLE ( 'NONE', #106, 0.2499999999999988620 ) ;
#101 = DIRECTION ( 'NONE',  ( 4.275831445896958607E-31, 1.000000000000000000, 1.224646799147353207E-16 ) ) ;
#102 = DIRECTION ( 'NONE',  ( -4.275831445896958607E-31, -1.000000000000000000, -1.224646799147353207E-16 ) ) ;
#103 = FACE_OUTER_BOUND ( 'NONE', #105, .T. ) ;
#104 = ADVANCED_FACE ( 'NONE', ( #66 ), #128, .T. ) ;
#105 = EDGE_LOOP ( 'NONE', ( #1 ) ) ;
#106 = AXIS2_PLACEMENT_3D ( 'NONE', #181, #31, #10 ) ;
#107 = VERTEX_POINT ( 'NONE', #19 ) ;
#108 = MECHANICAL_CONTEXT ( 'NONE', #44, 'mechanical' ) ;
#109 = COORDINATED_UNIVERSAL_TIME_OFFSET ( 1, 0, .AHEAD. ) ;
#110 = CIRCLE ( 'NONE', #185, 0.4999999999999989453 ) ;
#111 = CONICAL_SURFACE ( 'NONE', #116, 0.4999999999999958922, 0.2617993877991427465 ) ;
#112 =( NAMED_UNIT ( * ) PLANE_ANGLE_UNIT ( ) SI_UNIT ( $, .RADIAN. ) );
#113 =( NAMED_UNIT ( * ) SI_UNIT ( $, .STERADIAN. ) SOLID_ANGLE_UNIT ( ) );
#114 = EDGE_CURVE ( 'NONE', #35, #35, #100, .T. ) ;
#115 = CLOSED_SHELL ( 'NONE', ( #218, #222, #76, #50, #46 ) ) ;
#116 = AXIS2_PLACEMENT_3D ( 'NONE', #217, #70, #87 ) ;
#117 = ORIENTED_EDGE ( 'NONE', *, *, #131, .T. ) ;
#118 = APPROVAL_DATE_TIME ( #23, #63 ) ;
#119 = ORIENTED_EDGE ( 'NONE', *, *, #86, .T. ) ;
#120 = CC_DESIGN_APPROVAL ( #63, ( #88 ) ) ;
#121 = EDGE_CURVE ( 'NONE', #155, #155, #216, .T. ) ;
#122 = EDGE_LOOP ( 'NONE', ( #197 ) ) ;
#123 = EDGE_LOOP ( 'NONE', ( #43 ) ) ;
#124 = CC_DESIGN_PERSON_AND_ORGANIZATION_ASSIGNMENT ( #56, #143, ( #4 ) ) ;
#125 = DIRECTION ( 'NONE',  ( 0.0000000000000000000, 1.000000000000000000, 0.0000000000000000000 ) ) ;
#126 = UNCERTAINTY_MEASURE_WITH_UNIT (LENGTH_MEASURE( 1.000000000000000082E-05 ), #130, 'distance_accuracy_value', 'NONE');
#127 = CARTESIAN_POINT ( 'NONE',  ( 1.047444401652940007E-13, 0.3999999999999951927, 30.00000000000000000 ) ) ;
#128 = CONICAL_SURFACE ( 'NONE', #190, 0.2499999999999985012, 1.047197551196592524 ) ;
#129 = CC_DESIGN_APPROVAL ( #213, ( #37 ) ) ;
#130 =( LENGTH_UNIT ( ) NAMED_UNIT ( * ) SI_UNIT ( .MILLI., .METRE. ) );
#131 = EDGE_CURVE ( 'NONE', #52, #52, #110, .T. ) ;
#132 = CIRCLE ( 'NONE', #3, 0.3999999999999988565 ) ;
#133 = CC_DESIGN_PERSON_AND_ORGANIZATION_ASSIGNMENT ( #75, #206, ( #88 ) ) ;
#134 = SECURITY_CLASSIFICATION_LEVEL ( 'unclassified' ) ;
#135 = ORIENTED_EDGE ( 'NONE', *, *, #121, .F. ) ;
#136 = FACE_OUTER_BOUND ( 'NONE', #172, .T. ) ;
#137 = AXIS2_PLACEMENT_3D ( 'NONE', #215, #55, #167 ) ;
#138 = EDGE_LOOP ( 'NONE', ( #69 ) ) ;
#139 = PLANE ( 'NONE',  #77 ) ;
#140 = CARTESIAN_POINT ( 'NONE',  ( 1.043952920314096936E-13, -3.661693929450586610E-15, 29.90000000000000213 ) ) ;
#141 = VERTEX_POINT ( 'NONE', #127 ) ;
#142 = AXIS2_PLACEMENT_3D ( 'NONE', #162, #28, #125 ) ;
#143 = PERSON_AND_ORGANIZATION_ROLE ( 'design_owner' ) ;
#144 = LOCAL_TIME ( 7, 53, 44.00000000000000000, #2 ) ;
#145 = EDGE_LOOP ( 'NONE', ( #47 ) ) ;
#146 = CC_DESIGN_PERSON_AND_ORGANIZATION_ASSIGNMENT ( #21, #62, ( #88 ) ) ;
#147 = CARTESIAN_POINT ( 'NONE',  ( 1.047444401652940007E-13, -3.673940397442059178E-15, 30.00000000000000000 ) ) ;
#148 = FACE_OUTER_BOUND ( 'NONE', #145, .T. ) ;
#149 = DIRECTION ( 'NONE',  ( 3.491481338843133355E-15, -1.224646799147353207E-16, 1.000000000000000000 ) ) ;
#150 = APPROVAL ( #74, 'UNSPECIFIED' ) ;
#151 = AXIS2_PLACEMENT_3D ( 'NONE', #183, #187, #91 ) ;
#152 = EDGE_LOOP ( 'NONE', ( #214 ) ) ;
#153 = CARTESIAN_POINT ( 'NONE',  ( 1.722352179293287751E-14, 0.4999999999999952260, 4.933012701892232954 ) ) ;
#154 = APPROVAL_DATE_TIME ( #17, #150 ) ;
#155 = VERTEX_POINT ( 'NONE', #153 ) ;
#156 = APPROVAL_PERSON_ORGANIZATION ( #157, #213, #41 ) ;
#157 = PERSON_AND_ORGANIZATION ( #95, #16 ) ;
#158 = EDGE_LOOP ( 'NONE', ( #119 ) ) ;
#159 = EDGE_CURVE ( 'NONE', #141, #141, #132, .T. ) ;
#160 = CALENDAR_DATE ( 2021, 8, 10 ) ;
#161 = FACE_OUTER_BOUND ( 'NONE', #164, .T. ) ;
#162 = CARTESIAN_POINT ( 'NONE',  ( 1.396592535537253342E-14, -4.898587196589412829E-16, 4.000000000000000000 ) ) ;
#163 = CARTESIAN_POINT ( 'NONE',  ( 5.039519227129124573E-16, -1.767625397874855232E-17, 0.1443375672974072932 ) ) ;
#164 = EDGE_LOOP ( 'NONE', ( #64 ) ) ;
#165 = CIRCLE ( 'NONE', #142, 0.2499999999999988620 ) ;
#166 = ORIENTED_EDGE ( 'NONE', *, *, #159, .T. ) ;
#167 = DIRECTION ( 'NONE',  ( -4.275831445896958607E-31, -1.000000000000000000, -1.224646799147353207E-16 ) ) ;
#168 = FACE_OUTER_BOUND ( 'NONE', #123, .T. ) ;
#169 = CALENDAR_DATE ( 2021, 8, 10 ) ;
#170 = CLOSED_SHELL ( 'NONE', ( #104, #188, #36 ) ) ;
#171 = APPLICATION_PROTOCOL_DEFINITION ( 'international standard', 'config_control_design', 1994, #80 ) ;
#172 = EDGE_LOOP ( 'NONE', ( #135 ) ) ;
#173 = DATE_AND_TIME ( #20, #202 ) ;
#174 = ORIENTED_EDGE ( 'NONE', *, *, #114, .T. ) ;
#175 = AXIS2_PLACEMENT_3D ( 'NONE', #147, #82, #193 ) ;
#176 = LOCAL_TIME ( 7, 53, 44.00000000000000000, #45 ) ;
#177 = EDGE_LOOP ( 'NONE', ( #174 ) ) ;
#178 = CARTESIAN_POINT ( 'NONE',  ( 1.396592535537253342E-14, 1.874699728327305588E-33, 4.000000000000000000 ) ) ;
#179 = DIRECTION ( 'NONE',  ( 3.851859888774494915E-31, 1.000000000000000000, 1.084202172485510967E-16 ) ) ;
#180 = CARTESIAN_POINT ( 'NONE',  ( 1.047444401652940007E-13, -3.673940397442059178E-15, 30.00000000000000000 ) ) ;
#181 = CARTESIAN_POINT ( 'NONE',  ( 1.396592535537253342E-14, -4.898587196589412829E-16, 4.000000000000000000 ) ) ;
#182 = PLANE ( 'NONE',  #137 ) ;
#183 = CARTESIAN_POINT ( 'NONE',  ( 0.0000000000000000000, 0.0000000000000000000, 0.0000000000000000000 ) ) ;
#184 = CARTESIAN_POINT ( 'NONE',  ( 1.396592535537253342E-14, 0.2499999999999983902, 4.000000000000000000 ) ) ;
#185 = AXIS2_PLACEMENT_3D ( 'NONE', #140, #196, #49 ) ;
#186 = PRODUCT_DEFINITION_SHAPE ( 'NONE', 'NONE',  #204 ) ;
#187 = DIRECTION ( 'NONE',  ( 0.0000000000000000000, 0.0000000000000000000, 1.000000000000000000 ) ) ;
#188 = ADVANCED_FACE ( 'NONE', ( #161, #6 ), #40, .T. ) ;
#189 = DATE_TIME_ROLE ( 'creation_date' ) ;
#190 = AXIS2_PLACEMENT_3D ( 'NONE', #8, #149, #65 ) ;
#191 = DATE_AND_TIME ( #160, #72 ) ;
#192 =( GEOMETRIC_REPRESENTATION_CONTEXT ( 3 ) GLOBAL_UNCERTAINTY_ASSIGNED_CONTEXT ( ( #126 ) ) GLOBAL_UNIT_ASSIGNED_CONTEXT ( ( #130, #112, #113 ) ) REPRESENTATION_CONTEXT ( 'NONE', 'WORKASPACE' ) );
#193 = DIRECTION ( 'NONE',  ( 0.0000000000000000000, 1.000000000000000000, 0.0000000000000000000 ) ) ;
#194 = DIRECTION ( 'NONE',  ( -3.491481338843133355E-15, 1.224646799147353207E-16, -1.000000000000000000 ) ) ;
#195 = CONICAL_SURFACE ( 'NONE', #175, 0.3999999999999988565, 0.7853981633974689291 ) ;
#196 = DIRECTION ( 'NONE',  ( -3.491481338843133355E-15, 1.224646799147353207E-16, -1.000000000000000000 ) ) ;
#197 = ORIENTED_EDGE ( 'NONE', *, *, #114, .F. ) ;
#198 = DIRECTION ( 'NONE',  ( -3.491481338843133355E-15, 1.224646799147353207E-16, -1.000000000000000000 ) ) ;
#199 = VERTEX_POINT ( 'NONE', #184 ) ;
#200 = DESIGN_CONTEXT ( 'detailed design', #80, 'design' ) ;
#201 = CC_DESIGN_DATE_AND_TIME_ASSIGNMENT ( #191, #61, ( #37 ) ) ;
#202 = LOCAL_TIME ( 7, 53, 44.00000000000000000, #97 ) ;
#203 = APPROVAL_ROLE ( '' ) ;
#204 = PRODUCT_DEFINITION ( 'UNKNOWN', '', #88, #200 ) ;
#205 = CALENDAR_DATE ( 2021, 8, 10 ) ;
#206 = PERSON_AND_ORGANIZATION_ROLE ( 'creator' ) ;
#207 = PERSON_AND_ORGANIZATION ( #95, #16 ) ;
#208 = AXIS2_PLACEMENT_3D ( 'NONE', #211, #51, #101 ) ;
#209 = FACE_OUTER_BOUND ( 'NONE', #122, .T. ) ;
#210 = EDGE_LOOP ( 'NONE', ( #117 ) ) ;
#211 = CARTESIAN_POINT ( 'NONE',  ( 0.0000000000000000000, 0.0000000000000000000, 0.0000000000000000000 ) ) ;
#212 = DIRECTION ( 'NONE',  ( -3.491481338843133355E-15, 1.224646799147353207E-16, -1.000000000000000000 ) ) ;
#213 = APPROVAL ( #92, 'UNSPECIFIED' ) ;
#214 = ORIENTED_EDGE ( 'NONE', *, *, #86, .F. ) ;
#215 = CARTESIAN_POINT ( 'NONE',  ( 1.396592535537253342E-14, 1.874699728327305588E-33, 4.000000000000000000 ) ) ;
#216 = CIRCLE ( 'NONE', #27, 0.4999999999999958922 ) ;
#217 = CARTESIAN_POINT ( 'NONE',  ( 1.722352179293287751E-14, -6.041198215525559406E-16, 4.933012701892232954 ) ) ;
#218 = ADVANCED_FACE ( 'NONE', ( #90 ), #182, .F. ) ;
#219 = PERSON_AND_ORGANIZATION ( #95, #16 ) ;
#220 = CC_DESIGN_APPROVAL ( #150, ( #204 ) ) ;
#221 = PERSON_AND_ORGANIZATION ( #95, #16 ) ;
#222 = ADVANCED_FACE ( 'NONE', ( #89, #168 ), #111, .T. ) ;
#223 = SHAPE_DEFINITION_REPRESENTATION ( #186, #53 ) ;
ENDSEC;
END-ISO-10303-21;
