ISO-10303-21;
HEADER;
FILE_DESCRIPTION (( 'STEP AP203' ),
    '1' );
FILE_NAME ('212.step',
    '2021-10-06T08:24:33',
    ( '' ),
    ( '' ),
    'SwSTEP 2.0',
    'SolidWorks 2019',
    '' );
FILE_SCHEMA (( 'CONFIG_CONTROL_DESIGN' ));
ENDSEC;

DATA;
#1 = FACE_OUTER_BOUND ( 'NONE', #117, .T. ) ;
#2 = FACE_OUTER_BOUND ( 'NONE', #83, .T. ) ;
#3 = DIRECTION ( 'NONE',  ( 4.275831445896958607E-31, 1.000000000000000000, 1.224646799147353207E-16 ) ) ;
#4 = DIRECTION ( 'NONE',  ( -3.491481338843133355E-15, 1.224646799147353207E-16, -1.000000000000000000 ) ) ;
#5 = CARTESIAN_POINT ( 'NONE',  ( 2.793185071074506684E-14, -9.797174393178825657E-16, 8.000000000000000000 ) ) ;
#6 = EDGE_LOOP ( 'NONE', ( #67 ) ) ;
#7 = AXIS2_PLACEMENT_3D ( 'NONE', #123, #80, #144 ) ;
#8 = APPROVAL ( #62, 'UNSPECIFIED' ) ;
#9 = VERTEX_POINT ( 'NONE', #200 ) ;
#10 = APPLICATION_PROTOCOL_DEFINITION ( 'international standard', 'config_control_design', 1994, #121 ) ;
#11 = LOCAL_TIME ( 10, 24, 33.00000000000000000, #16 ) ;
#12 = APPROVAL_ROLE ( '' ) ;
#13 = APPROVAL ( #27, 'UNSPECIFIED' ) ;
#14 = UNCERTAINTY_MEASURE_WITH_UNIT (LENGTH_MEASURE( 1.000000000000000082E-05 ), #88, 'distance_accuracy_value', 'NONE');
#15 = MANIFOLD_SOLID_BREP ( 'Corps-Déplacer/Copier1[1]', #201 ) ;
#16 = COORDINATED_UNIVERSAL_TIME_OFFSET ( 1, 0, .AHEAD. ) ;
#17 = COORDINATED_UNIVERSAL_TIME_OFFSET ( 1, 0, .AHEAD. ) ;
#18 = PERSON_AND_ORGANIZATION_ROLE ( 'classification_officer' ) ;
#19 = ADVANCED_FACE ( 'NONE', ( #148 ), #195, .F. ) ;
#20 = DIRECTION ( 'NONE',  ( -3.491481338843133355E-15, 1.224646799147353207E-16, -1.000000000000000000 ) ) ;
#21 = CARTESIAN_POINT ( 'NONE',  ( 0.0000000000000000000, 0.0000000000000000000, 0.0000000000000000000 ) ) ;
#22 = ORIENTED_EDGE ( 'NONE', *, *, #190, .T. ) ;
#23 = FACE_OUTER_BOUND ( 'NONE', #6, .T. ) ;
#24 = EDGE_CURVE ( 'NONE', #107, #107, #112, .T. ) ;
#25 = AXIS2_PLACEMENT_3D ( 'NONE', #97, #20, #129 ) ;
#26 = COORDINATED_UNIVERSAL_TIME_OFFSET ( 1, 0, .AHEAD. ) ;
#27 = APPROVAL_STATUS ( 'not_yet_approved' ) ;
#28 = APPROVAL_PERSON_ORGANIZATION ( #155, #8, #110 ) ;
#29 = EDGE_CURVE ( 'NONE', #136, #136, #38, .T. ) ;
#30 = CLOSED_SHELL ( 'NONE', ( #60, #122, #103 ) ) ;
#31 = DATE_TIME_ROLE ( 'classification_date' ) ;
#32 = CALENDAR_DATE ( 2021, 6, 10 ) ;
#33 = APPROVAL_PERSON_ORGANIZATION ( #106, #13, #12 ) ;
#34 = CARTESIAN_POINT ( 'NONE',  ( 1.047444401652940007E-13, -3.673940397442059178E-15, 30.00000000000000000 ) ) ;
#35 = DIRECTION ( 'NONE',  ( -3.491481338843133355E-15, 1.224646799147353207E-16, -1.000000000000000000 ) ) ;
#36 = EDGE_LOOP ( 'NONE', ( #120 ) ) ;
#37 = DIRECTION ( 'NONE',  ( 3.491481338843133355E-15, -1.224646799147353207E-16, 1.000000000000000000 ) ) ;
#38 = CIRCLE ( 'NONE', #25, 0.3750000000000000000 ) ;
#39 = LOCAL_TIME ( 10, 24, 33.00000000000000000, #26 ) ;
#40 = DIRECTION ( 'NONE',  ( 0.0000000000000000000, 1.000000000000000000, 0.0000000000000000000 ) ) ;
#41 = PERSON_AND_ORGANIZATION_ROLE ( 'design_owner' ) ;
#42 = EDGE_LOOP ( 'NONE', ( #131 ) ) ;
#43 = DATE_AND_TIME ( #71, #167 ) ;
#44 = AXIS2_PLACEMENT_3D ( 'NONE', #177, #130, #191 ) ;
#45 = APPLICATION_PROTOCOL_DEFINITION ( 'international standard', 'config_control_design', 1994, #182 ) ;
#46 = DIRECTION ( 'NONE',  ( 3.349443381543040427E-31, 1.000000000000000000, 9.427844978134881830E-17 ) ) ;
#47 = CC_DESIGN_PERSON_AND_ORGANIZATION_ASSIGNMENT ( #171, #189, ( #178 ) ) ;
#48 = CALENDAR_DATE ( 2021, 6, 10 ) ;
#49 = DESIGN_CONTEXT ( 'detailed design', #182, 'design' ) ;
#50 = CARTESIAN_POINT ( 'NONE',  ( 0.0000000000000000000, 0.0000000000000000000, 0.0000000000000000000 ) ) ;
#51 = AXIS2_PLACEMENT_3D ( 'NONE', #116, #164, #55 ) ;
#52 = CC_DESIGN_PERSON_AND_ORGANIZATION_ASSIGNMENT ( #132, #149, ( #78 ) ) ;
#53 = CARTESIAN_POINT ( 'NONE',  ( 1.047444401652940007E-13, 2.812049592490927934E-33, 30.00000000000000000 ) ) ;
#54 = FACE_OUTER_BOUND ( 'NONE', #82, .T. ) ;
#55 = DIRECTION ( 'NONE',  ( -3.349443381543040427E-31, -1.000000000000000000, -9.427844978134881830E-17 ) ) ;
#56 = DATE_TIME_ROLE ( 'creation_date' ) ;
#57 =( NAMED_UNIT ( * ) SI_UNIT ( $, .STERADIAN. ) SOLID_ANGLE_UNIT ( ) );
#58 = AXIS2_PLACEMENT_3D ( 'NONE', #50, #84, #114 ) ;
#59 = APPROVAL_PERSON_ORGANIZATION ( #104, #135, #111 ) ;
#60 = ADVANCED_FACE ( 'NONE', ( #64 ), #108, .T. ) ;
#61 = AXIS2_PLACEMENT_3D ( 'NONE', #158, #79, #143 ) ;
#62 = APPROVAL_STATUS ( 'not_yet_approved' ) ;
#63 = SHAPE_DEFINITION_REPRESENTATION ( #90, #180 ) ;
#64 = FACE_OUTER_BOUND ( 'NONE', #85, .T. ) ;
#65 = CC_DESIGN_PERSON_AND_ORGANIZATION_ASSIGNMENT ( #152, #41, ( #126 ) ) ;
#66 = FACE_OUTER_BOUND ( 'NONE', #163, .T. ) ;
#67 = ORIENTED_EDGE ( 'NONE', *, *, #190, .F. ) ;
#68 = DIRECTION ( 'NONE',  ( 0.0000000000000000000, 1.000000000000000000, 0.0000000000000000000 ) ) ;
#69 = DIRECTION ( 'NONE',  ( 0.0000000000000000000, 1.000000000000000000, 0.0000000000000000000 ) ) ;
#70 = ORIENTED_EDGE ( 'NONE', *, *, #150, .T. ) ;
#71 = CALENDAR_DATE ( 2021, 6, 10 ) ;
#72 = DIRECTION ( 'NONE',  ( -3.491481338843133355E-15, 1.224646799147353207E-16, -1.000000000000000000 ) ) ;
#73 = CIRCLE ( 'NONE', #101, 0.5749999999999962919 ) ;
#74 = CIRCLE ( 'NONE', #192, 0.5749999999999972911 ) ;
#75 = CC_DESIGN_APPROVAL ( #8, ( #119 ) ) ;
#76 = SECURITY_CLASSIFICATION_LEVEL ( 'unclassified' ) ;
#77 = DATE_AND_TIME ( #32, #138 ) ;
#78 = PRODUCT_DEFINITION ( 'UNKNOWN', '', #178, #49 ) ;
#79 = DIRECTION ( 'NONE',  ( -3.491481338843133355E-15, 1.224646799147353207E-16, -1.000000000000000000 ) ) ;
#80 = DIRECTION ( 'NONE',  ( 0.0000000000000000000, 0.0000000000000000000, 1.000000000000000000 ) ) ;
#81 = CYLINDRICAL_SURFACE ( 'NONE', #58, 0.5749999999999967359 ) ;
#82 = EDGE_LOOP ( 'NONE', ( #160 ) ) ;
#83 = EDGE_LOOP ( 'NONE', ( #175 ) ) ;
#84 = DIRECTION ( 'NONE',  ( -3.491481338843133355E-15, 1.224646799147353207E-16, -1.000000000000000000 ) ) ;
#85 = EDGE_LOOP ( 'NONE', ( #22 ) ) ;
#86 = DATE_AND_TIME ( #151, #39 ) ;
#87 = ADVANCED_FACE ( 'NONE', ( #54 ), #100, .F. ) ;
#88 =( LENGTH_UNIT ( ) NAMED_UNIT ( * ) SI_UNIT ( .MILLI., .METRE. ) );
#89 = CARTESIAN_POINT ( 'NONE',  ( 2.793185071074506684E-14, 0.5749999999999962919, 8.000000000000000000 ) ) ;
#90 = PRODUCT_DEFINITION_SHAPE ( 'NONE', 'NONE',  #78 ) ;
#91 = DATE_AND_TIME ( #48, #146 ) ;
#92 = PERSON ( 'UNSPECIFIED', 'UNSPECIFIED', 'UNSPECIFIED', ('UNSPECIFIED'), ('UNSPECIFIED'), ('UNSPECIFIED') ) ;
#93 = EDGE_CURVE ( 'NONE', #197, #197, #74, .T. ) ;
#94 = AXIS2_PLACEMENT_3D ( 'NONE', #53, #134, #179 ) ;
#95 = CC_DESIGN_APPROVAL ( #135, ( #178 ) ) ;
#96 = PERSON_AND_ORGANIZATION_ROLE ( 'creator' ) ;
#97 = CARTESIAN_POINT ( 'NONE',  ( 1.047444401652940007E-13, -3.673940397442059178E-15, 30.00000000000000000 ) ) ;
#98 = CARTESIAN_POINT ( 'NONE',  ( 2.793185071074506684E-14, 4.311809375152805727E-33, 8.000000000000000000 ) ) ;
#99 = ORIENTED_EDGE ( 'NONE', *, *, #150, .F. ) ;
#100 = PLANE ( 'NONE',  #44 ) ;
#101 = AXIS2_PLACEMENT_3D ( 'NONE', #186, #72, #46 ) ;
#102 = DIRECTION ( 'NONE',  ( -4.275831445896958607E-31, -1.000000000000000000, -1.224646799147353207E-16 ) ) ;
#103 = ADVANCED_FACE ( 'NONE', ( #162 ), #193, .T. ) ;
#104 = PERSON_AND_ORGANIZATION ( #92, #170 ) ;
#105 = AXIS2_PLACEMENT_3D ( 'NONE', #98, #37, #102 ) ;
#106 = PERSON_AND_ORGANIZATION ( #92, #170 ) ;
#107 = VERTEX_POINT ( 'NONE', #166 ) ;
#108 = CONICAL_SURFACE ( 'NONE', #51, 0.5749999999999962919, 1.047197551196592746 ) ;
#109 = CC_DESIGN_SECURITY_CLASSIFICATION ( #119, ( #178 ) ) ;
#110 = APPROVAL_ROLE ( '' ) ;
#111 = APPROVAL_ROLE ( '' ) ;
#112 = CIRCLE ( 'NONE', #118, 0.5749999999999972911 ) ;
#113 = FACE_OUTER_BOUND ( 'NONE', #133, .T. ) ;
#114 = DIRECTION ( 'NONE',  ( 4.275831445896958607E-31, 1.000000000000000000, 1.224646799147353207E-16 ) ) ;
#115 = CARTESIAN_POINT ( 'NONE',  ( 1.159089422239697962E-15, 0.5749999999999962919, 0.3319764047840365606 ) ) ;
#116 = CARTESIAN_POINT ( 'NONE',  ( 1.159089422239697764E-15, -4.065538415112163552E-17, 0.3319764047840365051 ) ) ;
#117 = EDGE_LOOP ( 'NONE', ( #165 ) ) ;
#118 = AXIS2_PLACEMENT_3D ( 'NONE', #196, #35, #69 ) ;
#119 = SECURITY_CLASSIFICATION ( '', '', #76 ) ;
#120 = ORIENTED_EDGE ( 'NONE', *, *, #24, .F. ) ;
#121 = APPLICATION_CONTEXT ( 'configuration controlled 3d designs of mechanical parts and assemblies' ) ;
#122 = ADVANCED_FACE ( 'NONE', ( #23, #1 ), #81, .T. ) ;
#123 = CARTESIAN_POINT ( 'NONE',  ( 0.0000000000000000000, 0.0000000000000000000, 0.0000000000000000000 ) ) ;
#124 = APPROVAL_DATE_TIME ( #86, #13 ) ;
#125 = ADVANCED_FACE ( 'NONE', ( #113, #174 ), #161, .T. ) ;
#126 = PRODUCT ( '212', '212', '', ( #181 ) ) ;
#127 =( GEOMETRIC_REPRESENTATION_CONTEXT ( 3 ) GLOBAL_UNCERTAINTY_ASSIGNED_CONTEXT ( ( #14 ) ) GLOBAL_UNIT_ASSIGNED_CONTEXT ( ( #88, #199, #57 ) ) REPRESENTATION_CONTEXT ( 'NONE', 'WORKASPACE' ) );
#128 = APPROVAL_STATUS ( 'not_yet_approved' ) ;
#129 = DIRECTION ( 'NONE',  ( 0.0000000000000000000, 1.000000000000000000, 0.0000000000000000000 ) ) ;
#130 = DIRECTION ( 'NONE',  ( 3.491481338843133355E-15, -1.224646799147353207E-16, 1.000000000000000000 ) ) ;
#131 = ORIENTED_EDGE ( 'NONE', *, *, #29, .F. ) ;
#132 = PERSON_AND_ORGANIZATION ( #92, #170 ) ;
#133 = EDGE_LOOP ( 'NONE', ( #99 ) ) ;
#134 = DIRECTION ( 'NONE',  ( -3.491481338843133355E-15, 1.224646799147353207E-16, -1.000000000000000000 ) ) ;
#135 = APPROVAL ( #128, 'UNSPECIFIED' ) ;
#136 = VERTEX_POINT ( 'NONE', #168 ) ;
#137 = VERTEX_POINT ( 'NONE', #115 ) ;
#138 = LOCAL_TIME ( 10, 24, 33.00000000000000000, #156 ) ;
#139 = PRODUCT_RELATED_PRODUCT_CATEGORY ( 'detail', '', ( #126 ) ) ;
#140 = APPROVAL_DATE_TIME ( #203, #8 ) ;
#141 = CALENDAR_DATE ( 2021, 6, 10 ) ;
#142 = DIRECTION ( 'NONE',  ( -3.491481338843133355E-15, 1.224646799147353207E-16, -1.000000000000000000 ) ) ;
#143 = DIRECTION ( 'NONE',  ( 0.0000000000000000000, 1.000000000000000000, 0.0000000000000000000 ) ) ;
#144 = DIRECTION ( 'NONE',  ( 1.000000000000000000, 0.0000000000000000000, 0.0000000000000000000 ) ) ;
#145 = DIRECTION ( 'NONE',  ( -3.491481338843133355E-15, 1.224646799147353207E-16, -1.000000000000000000 ) ) ;
#146 = LOCAL_TIME ( 10, 24, 33.00000000000000000, #17 ) ;
#147 = EDGE_LOOP ( 'NONE', ( #176 ) ) ;
#148 = FACE_OUTER_BOUND ( 'NONE', #42, .T. ) ;
#149 = PERSON_AND_ORGANIZATION_ROLE ( 'creator' ) ;
#150 = EDGE_CURVE ( 'NONE', #9, #9, #169, .T. ) ;
#151 = CALENDAR_DATE ( 2021, 6, 10 ) ;
#152 = PERSON_AND_ORGANIZATION ( #92, #170 ) ;
#153 = MANIFOLD_SOLID_BREP ( 'Corps-Déplacer/Copier1[2]', #30 ) ;
#154 = ADVANCED_FACE ( 'NONE', ( #2, #66 ), #159, .T. ) ;
#155 = PERSON_AND_ORGANIZATION ( #92, #170 ) ;
#156 = COORDINATED_UNIVERSAL_TIME_OFFSET ( 1, 0, .AHEAD. ) ;
#157 = CC_DESIGN_PERSON_AND_ORGANIZATION_ASSIGNMENT ( #172, #96, ( #178 ) ) ;
#158 = CARTESIAN_POINT ( 'NONE',  ( 1.040461438975253740E-13, -3.649447461459112464E-15, 29.80000000000000071 ) ) ;
#159 = CYLINDRICAL_SURFACE ( 'NONE', #187, 0.5749999999999987343 ) ;
#160 = ORIENTED_EDGE ( 'NONE', *, *, #93, .T. ) ;
#161 = CONICAL_SURFACE ( 'NONE', #184, 0.3750000000000000000, 0.7853981633974512766 ) ;
#162 = FACE_OUTER_BOUND ( 'NONE', #36, .T. ) ;
#163 = EDGE_LOOP ( 'NONE', ( #70 ) ) ;
#164 = DIRECTION ( 'NONE',  ( 3.491481338843133355E-15, -1.224646799147353207E-16, 1.000000000000000000 ) ) ;
#165 = ORIENTED_EDGE ( 'NONE', *, *, #24, .T. ) ;
#166 = CARTESIAN_POINT ( 'NONE',  ( 2.793185071074506684E-14, 0.5749999999999962919, 8.000000000000000000 ) ) ;
#167 = LOCAL_TIME ( 10, 24, 33.00000000000000000, #194 ) ;
#168 = CARTESIAN_POINT ( 'NONE',  ( 1.047444401652940007E-13, 0.3749999999999963363, 30.00000000000000000 ) ) ;
#169 = CIRCLE ( 'NONE', #61, 0.5749999999999999556 ) ;
#170 = ORGANIZATION ( 'UNSPECIFIED', 'UNSPECIFIED', '' ) ;
#171 = PERSON_AND_ORGANIZATION ( #92, #170 ) ;
#172 = PERSON_AND_ORGANIZATION ( #92, #170 ) ;
#173 = CC_DESIGN_DATE_AND_TIME_ASSIGNMENT ( #91, #31, ( #119 ) ) ;
#174 = FACE_BOUND ( 'NONE', #147, .T. ) ;
#175 = ORIENTED_EDGE ( 'NONE', *, *, #93, .F. ) ;
#176 = ORIENTED_EDGE ( 'NONE', *, *, #29, .T. ) ;
#177 = CARTESIAN_POINT ( 'NONE',  ( 2.793185071074506684E-14, 4.311809375152805727E-33, 8.000000000000000000 ) ) ;
#178 = PRODUCT_DEFINITION_FORMATION_WITH_SPECIFIED_SOURCE ( 'ANY', '', #126, .NOT_KNOWN. ) ;
#179 = DIRECTION ( 'NONE',  ( 4.275831445896958607E-31, 1.000000000000000000, 1.224646799147353207E-16 ) ) ;
#180 = ADVANCED_BREP_SHAPE_REPRESENTATION ( '212', ( #15, #153, #7 ), #127 ) ;
#181 = MECHANICAL_CONTEXT ( 'NONE', #121, 'mechanical' ) ;
#182 = APPLICATION_CONTEXT ( 'configuration controlled 3d designs of mechanical parts and assemblies' ) ;
#183 = CC_DESIGN_DATE_AND_TIME_ASSIGNMENT ( #43, #56, ( #78 ) ) ;
#184 = AXIS2_PLACEMENT_3D ( 'NONE', #34, #4, #68 ) ;
#185 = CC_DESIGN_APPROVAL ( #13, ( #78 ) ) ;
#186 = CARTESIAN_POINT ( 'NONE',  ( 1.159089422239697764E-15, -4.065538415112163552E-17, 0.3319764047840365051 ) ) ;
#187 = AXIS2_PLACEMENT_3D ( 'NONE', #21, #145, #3 ) ;
#188 = APPROVAL_DATE_TIME ( #77, #135 ) ;
#189 = PERSON_AND_ORGANIZATION_ROLE ( 'design_supplier' ) ;
#190 = EDGE_CURVE ( 'NONE', #137, #137, #73, .T. ) ;
#191 = DIRECTION ( 'NONE',  ( -4.275831445896958607E-31, -1.000000000000000000, -1.224646799147353207E-16 ) ) ;
#192 = AXIS2_PLACEMENT_3D ( 'NONE', #5, #142, #40 ) ;
#193 = PLANE ( 'NONE',  #105 ) ;
#194 = COORDINATED_UNIVERSAL_TIME_OFFSET ( 1, 0, .AHEAD. ) ;
#195 = PLANE ( 'NONE',  #94 ) ;
#196 = CARTESIAN_POINT ( 'NONE',  ( 2.793185071074506684E-14, -9.797174393178825657E-16, 8.000000000000000000 ) ) ;
#197 = VERTEX_POINT ( 'NONE', #89 ) ;
#198 = CC_DESIGN_PERSON_AND_ORGANIZATION_ASSIGNMENT ( #202, #18, ( #119 ) ) ;
#199 =( NAMED_UNIT ( * ) PLANE_ANGLE_UNIT ( ) SI_UNIT ( $, .RADIAN. ) );
#200 = CARTESIAN_POINT ( 'NONE',  ( 1.040461438975253740E-13, 0.5749999999999962919, 29.80000000000000071 ) ) ;
#201 = CLOSED_SHELL ( 'NONE', ( #87, #154, #125, #19 ) ) ;
#202 = PERSON_AND_ORGANIZATION ( #92, #170 ) ;
#203 = DATE_AND_TIME ( #141, #11 ) ;
ENDSEC;
END-ISO-10303-21;
