ISO-10303-21;
HEADER;
FILE_DESCRIPTION (( 'STEP AP203' ),
    '1' );
FILE_NAME ('210.step',
    '2021-10-06T08:24:31',
    ( '' ),
    ( '' ),
    'SwSTEP 2.0',
    'SolidWorks 2019',
    '' );
FILE_SCHEMA (( 'CONFIG_CONTROL_DESIGN' ));
ENDSEC;

DATA;
#1 = ADVANCED_FACE ( 'NONE', ( #21 ), #84, .T. ) ;
#2 = CARTESIAN_POINT ( 'NONE',  ( 0.0000000000000000000, 0.0000000000000000000, 0.0000000000000000000 ) ) ;
#3 = CARTESIAN_POINT ( 'NONE',  ( 1.040461438975253740E-13, -3.649447461459112464E-15, 29.80000000000000071 ) ) ;
#4 = CIRCLE ( 'NONE', #55, 0.5249999999999973577 ) ;
#5 = CARTESIAN_POINT ( 'NONE',  ( 1.040461438975253740E-13, 0.5249999999999963585, 29.80000000000000071 ) ) ;
#6 = UNCERTAINTY_MEASURE_WITH_UNIT (LENGTH_MEASURE( 1.000000000000000082E-05 ), #180, 'distance_accuracy_value', 'NONE');
#7 = CARTESIAN_POINT ( 'NONE',  ( 0.0000000000000000000, 0.0000000000000000000, 0.0000000000000000000 ) ) ;
#8 = DIRECTION ( 'NONE',  ( -3.491481338843133355E-15, 1.224646799147353207E-16, -1.000000000000000000 ) ) ;
#9 = CIRCLE ( 'NONE', #161, 0.5250000000000000222 ) ;
#10 = PLANE ( 'NONE',  #67 ) ;
#11 = CARTESIAN_POINT ( 'NONE',  ( 1.058299037697114681E-15, -3.712013335537190719E-17, 0.3031088913245549299 ) ) ;
#12 = SECURITY_CLASSIFICATION_LEVEL ( 'unclassified' ) ;
#13 = DATE_AND_TIME ( #79, #111 ) ;
#14 = APPLICATION_CONTEXT ( 'configuration controlled 3d designs of mechanical parts and assemblies' ) ;
#15 = CONICAL_SURFACE ( 'NONE', #173, 0.5249999999999963585, 1.047197551196592746 ) ;
#16 = CC_DESIGN_PERSON_AND_ORGANIZATION_ASSIGNMENT ( #28, #109, ( #102 ) ) ;
#17 = ADVANCED_BREP_SHAPE_REPRESENTATION ( '210', ( #202, #75, #123 ), #30 ) ;
#18 = ORIENTED_EDGE ( 'NONE', *, *, #89, .F. ) ;
#19 = ADVANCED_FACE ( 'NONE', ( #160, #155 ), #22, .T. ) ;
#20 = EDGE_LOOP ( 'NONE', ( #172 ) ) ;
#21 = FACE_OUTER_BOUND ( 'NONE', #86, .T. ) ;
#22 = CYLINDRICAL_SURFACE ( 'NONE', #99, 0.5249999999999968026 ) ;
#23 = CARTESIAN_POINT ( 'NONE',  ( 2.793185071074506684E-14, -9.797174393178825657E-16, 8.000000000000000000 ) ) ;
#24 = AXIS2_PLACEMENT_3D ( 'NONE', #116, #53, #159 ) ;
#25 = DIRECTION ( 'NONE',  ( 3.491481338843133355E-15, -1.224646799147353207E-16, 1.000000000000000000 ) ) ;
#26 = ORGANIZATION ( 'UNSPECIFIED', 'UNSPECIFIED', '' ) ;
#27 = CARTESIAN_POINT ( 'NONE',  ( 2.793185071074506684E-14, 0.5249999999999963585, 8.000000000000000000 ) ) ;
#28 = PERSON_AND_ORGANIZATION ( #170, #26 ) ;
#29 = PERSON_AND_ORGANIZATION_ROLE ( 'creator' ) ;
#30 =( GEOMETRIC_REPRESENTATION_CONTEXT ( 3 ) GLOBAL_UNCERTAINTY_ASSIGNED_CONTEXT ( ( #6 ) ) GLOBAL_UNIT_ASSIGNED_CONTEXT ( ( #180, #117, #57 ) ) REPRESENTATION_CONTEXT ( 'NONE', 'WORKASPACE' ) );
#31 = CC_DESIGN_APPROVAL ( #185, ( #52 ) ) ;
#32 = PERSON_AND_ORGANIZATION_ROLE ( 'design_supplier' ) ;
#33 = DIRECTION ( 'NONE',  ( -3.491481338843133355E-15, 1.224646799147353207E-16, -1.000000000000000000 ) ) ;
#34 = ADVANCED_FACE ( 'NONE', ( #146, #51 ), #45, .T. ) ;
#35 = EDGE_LOOP ( 'NONE', ( #192 ) ) ;
#36 = AXIS2_PLACEMENT_3D ( 'NONE', #194, #175, #40 ) ;
#37 = ORIENTED_EDGE ( 'NONE', *, *, #104, .T. ) ;
#38 = ORIENTED_EDGE ( 'NONE', *, *, #201, .T. ) ;
#39 = CC_DESIGN_PERSON_AND_ORGANIZATION_ASSIGNMENT ( #153, #61, ( #52 ) ) ;
#40 = DIRECTION ( 'NONE',  ( 0.0000000000000000000, 1.000000000000000000, 0.0000000000000000000 ) ) ;
#41 = PERSON_AND_ORGANIZATION_ROLE ( 'design_owner' ) ;
#42 = PRODUCT ( '210', '210', '', ( #108 ) ) ;
#43 = VERTEX_POINT ( 'NONE', #199 ) ;
#44 = CARTESIAN_POINT ( 'NONE',  ( 1.047444401652940007E-13, 2.437109646825463875E-33, 30.00000000000000000 ) ) ;
#45 = CONICAL_SURFACE ( 'NONE', #105, 0.3250000000000000666, 0.7853981633974512766 ) ;
#46 = APPROVAL_DATE_TIME ( #82, #185 ) ;
#47 = APPROVAL_STATUS ( 'not_yet_approved' ) ;
#48 = DATE_TIME_ROLE ( 'classification_date' ) ;
#49 = PERSON_AND_ORGANIZATION ( #170, #26 ) ;
#50 = EDGE_LOOP ( 'NONE', ( #98 ) ) ;
#51 = FACE_BOUND ( 'NONE', #156, .T. ) ;
#52 = SECURITY_CLASSIFICATION ( '', '', #12 ) ;
#53 = DIRECTION ( 'NONE',  ( 3.491481338843133355E-15, -1.224646799147353207E-16, 1.000000000000000000 ) ) ;
#54 = FACE_OUTER_BOUND ( 'NONE', #101, .T. ) ;
#55 = AXIS2_PLACEMENT_3D ( 'NONE', #23, #171, #145 ) ;
#56 = DIRECTION ( 'NONE',  ( 4.275831445896958607E-31, 1.000000000000000000, 1.224646799147352961E-16 ) ) ;
#57 =( NAMED_UNIT ( * ) SI_UNIT ( $, .STERADIAN. ) SOLID_ANGLE_UNIT ( ) );
#58 = DIRECTION ( 'NONE',  ( -3.491481338843133355E-15, 1.224646799147353207E-16, -1.000000000000000000 ) ) ;
#59 = EDGE_CURVE ( 'NONE', #165, #165, #9, .T. ) ;
#60 = APPROVAL_ROLE ( '' ) ;
#61 = PERSON_AND_ORGANIZATION_ROLE ( 'classification_officer' ) ;
#62 = EDGE_CURVE ( 'NONE', #118, #118, #142, .T. ) ;
#63 = COORDINATED_UNIVERSAL_TIME_OFFSET ( 1, 0, .AHEAD. ) ;
#64 = APPROVAL_STATUS ( 'not_yet_approved' ) ;
#65 = APPROVAL ( #135, 'UNSPECIFIED' ) ;
#66 = ORIENTED_EDGE ( 'NONE', *, *, #62, .T. ) ;
#67 = AXIS2_PLACEMENT_3D ( 'NONE', #198, #25, #150 ) ;
#68 = ORIENTED_EDGE ( 'NONE', *, *, #59, .T. ) ;
#69 = APPROVAL ( #47, 'UNSPECIFIED' ) ;
#70 = LOCAL_TIME ( 10, 24, 31.00000000000000000, #95 ) ;
#71 = DIRECTION ( 'NONE',  ( -3.491481338843133355E-15, 1.224646799147353207E-16, -1.000000000000000000 ) ) ;
#72 = PERSON_AND_ORGANIZATION ( #170, #26 ) ;
#73 = FACE_OUTER_BOUND ( 'NONE', #133, .T. ) ;
#74 = VERTEX_POINT ( 'NONE', #163 ) ;
#75 = MANIFOLD_SOLID_BREP ( 'Corps-Déplacer/Copier1[2]', #113 ) ;
#76 = VERTEX_POINT ( 'NONE', #27 ) ;
#77 = COORDINATED_UNIVERSAL_TIME_OFFSET ( 1, 0, .AHEAD. ) ;
#78 = AXIS2_PLACEMENT_3D ( 'NONE', #203, #33, #129 ) ;
#79 = CALENDAR_DATE ( 2021, 6, 10 ) ;
#80 = APPROVAL_DATE_TIME ( #143, #65 ) ;
#81 = CC_DESIGN_SECURITY_CLASSIFICATION ( #52, ( #138 ) ) ;
#82 = DATE_AND_TIME ( #152, #164 ) ;
#83 = LOCAL_TIME ( 10, 24, 31.00000000000000000, #77 ) ;
#84 = PLANE ( 'NONE',  #24 ) ;
#85 = CC_DESIGN_PERSON_AND_ORGANIZATION_ASSIGNMENT ( #49, #29, ( #138 ) ) ;
#86 = EDGE_LOOP ( 'NONE', ( #158 ) ) ;
#87 = DIRECTION ( 'NONE',  ( 4.275831445896958607E-31, 1.000000000000000000, 1.224646799147353207E-16 ) ) ;
#88 = DIRECTION ( 'NONE',  ( 3.491481338843133355E-15, -1.224646799147353207E-16, 1.000000000000000000 ) ) ;
#89 = EDGE_CURVE ( 'NONE', #43, #43, #4, .T. ) ;
#90 = AXIS2_PLACEMENT_3D ( 'NONE', #11, #8, #103 ) ;
#91 = DIRECTION ( 'NONE',  ( 1.000000000000000000, 0.0000000000000000000, 0.0000000000000000000 ) ) ;
#92 = PERSON_AND_ORGANIZATION ( #170, #26 ) ;
#93 = DATE_AND_TIME ( #186, #70 ) ;
#94 = CC_DESIGN_PERSON_AND_ORGANIZATION_ASSIGNMENT ( #110, #32, ( #138 ) ) ;
#95 = COORDINATED_UNIVERSAL_TIME_OFFSET ( 1, 0, .AHEAD. ) ;
#96 = DATE_TIME_ROLE ( 'creation_date' ) ;
#97 = DIRECTION ( 'NONE',  ( 0.0000000000000000000, 1.000000000000000000, 0.0000000000000000000 ) ) ;
#98 = ORIENTED_EDGE ( 'NONE', *, *, #62, .F. ) ;
#99 = AXIS2_PLACEMENT_3D ( 'NONE', #2, #132, #87 ) ;
#100 = CARTESIAN_POINT ( 'NONE',  ( 1.047444401652940007E-13, -3.673940397442059178E-15, 30.00000000000000000 ) ) ;
#101 = EDGE_LOOP ( 'NONE', ( #18 ) ) ;
#102 = PRODUCT_DEFINITION ( 'UNKNOWN', '', #138, #136 ) ;
#103 = DIRECTION ( 'NONE',  ( 3.668437989309046175E-31, 1.000000000000000000, 1.032573497605249497E-16 ) ) ;
#104 = EDGE_CURVE ( 'NONE', #76, #76, #157, .T. ) ;
#105 = AXIS2_PLACEMENT_3D ( 'NONE', #100, #147, #97 ) ;
#106 = DIRECTION ( 'NONE',  ( -3.668437989309046175E-31, -1.000000000000000000, -1.032573497605249497E-16 ) ) ;
#107 = ADVANCED_FACE ( 'NONE', ( #119 ), #162, .F. ) ;
#108 = MECHANICAL_CONTEXT ( 'NONE', #169, 'mechanical' ) ;
#109 = PERSON_AND_ORGANIZATION_ROLE ( 'creator' ) ;
#110 = PERSON_AND_ORGANIZATION ( #170, #26 ) ;
#111 = LOCAL_TIME ( 10, 24, 31.00000000000000000, #63 ) ;
#112 = APPROVAL_ROLE ( '' ) ;
#113 = CLOSED_SHELL ( 'NONE', ( #187, #19, #1 ) ) ;
#114 = EDGE_LOOP ( 'NONE', ( #37 ) ) ;
#115 = EDGE_LOOP ( 'NONE', ( #174 ) ) ;
#116 = CARTESIAN_POINT ( 'NONE',  ( 2.793185071074506684E-14, 3.936869429487342009E-33, 8.000000000000000000 ) ) ;
#117 =( NAMED_UNIT ( * ) PLANE_ANGLE_UNIT ( ) SI_UNIT ( $, .RADIAN. ) );
#118 = VERTEX_POINT ( 'NONE', #140 ) ;
#119 = FACE_OUTER_BOUND ( 'NONE', #50, .T. ) ;
#120 = CC_DESIGN_PERSON_AND_ORGANIZATION_ASSIGNMENT ( #148, #41, ( #42 ) ) ;
#121 = CARTESIAN_POINT ( 'NONE',  ( 1.058299037697114681E-15, -3.712013335537190719E-17, 0.3031088913245549299 ) ) ;
#122 = PRODUCT_DEFINITION_SHAPE ( 'NONE', 'NONE',  #102 ) ;
#123 = AXIS2_PLACEMENT_3D ( 'NONE', #7, #124, #91 ) ;
#124 = DIRECTION ( 'NONE',  ( 0.0000000000000000000, 0.0000000000000000000, 1.000000000000000000 ) ) ;
#125 = SHAPE_DEFINITION_REPRESENTATION ( #122, #17 ) ;
#126 = APPROVAL_PERSON_ORGANIZATION ( #127, #185, #128 ) ;
#127 = PERSON_AND_ORGANIZATION ( #170, #26 ) ;
#128 = APPROVAL_ROLE ( '' ) ;
#129 = DIRECTION ( 'NONE',  ( 0.0000000000000000000, 1.000000000000000000, 0.0000000000000000000 ) ) ;
#130 = CLOSED_SHELL ( 'NONE', ( #181, #168, #34, #107 ) ) ;
#131 = EDGE_LOOP ( 'NONE', ( #38 ) ) ;
#132 = DIRECTION ( 'NONE',  ( -3.491481338843133355E-15, 1.224646799147353207E-16, -1.000000000000000000 ) ) ;
#133 = EDGE_LOOP ( 'NONE', ( #68 ) ) ;
#134 = DIRECTION ( 'NONE',  ( 0.0000000000000000000, 1.000000000000000000, 0.0000000000000000000 ) ) ;
#135 = APPROVAL_STATUS ( 'not_yet_approved' ) ;
#136 = DESIGN_CONTEXT ( 'detailed design', #14, 'design' ) ;
#137 = DIRECTION ( 'NONE',  ( 4.275831445896958607E-31, 1.000000000000000000, 1.224646799147353207E-16 ) ) ;
#138 = PRODUCT_DEFINITION_FORMATION_WITH_SPECIFIED_SOURCE ( 'ANY', '', #42, .NOT_KNOWN. ) ;
#139 = PRODUCT_RELATED_PRODUCT_CATEGORY ( 'detail', '', ( #42 ) ) ;
#140 = CARTESIAN_POINT ( 'NONE',  ( 1.047444401652940007E-13, 0.3249999999999964029, 30.00000000000000000 ) ) ;
#141 = DIRECTION ( 'NONE',  ( -3.491481338843133355E-15, 1.224646799147353207E-16, -1.000000000000000000 ) ) ;
#142 = CIRCLE ( 'NONE', #36, 0.3250000000000000666 ) ;
#143 = DATE_AND_TIME ( #189, #83 ) ;
#144 = APPROVAL_PERSON_ORGANIZATION ( #92, #69, #60 ) ;
#145 = DIRECTION ( 'NONE',  ( 0.0000000000000000000, 1.000000000000000000, 0.0000000000000000000 ) ) ;
#146 = FACE_OUTER_BOUND ( 'NONE', #20, .T. ) ;
#147 = DIRECTION ( 'NONE',  ( -3.491481338843133355E-15, 1.224646799147353207E-16, -1.000000000000000000 ) ) ;
#148 = PERSON_AND_ORGANIZATION ( #170, #26 ) ;
#149 = FACE_OUTER_BOUND ( 'NONE', #131, .T. ) ;
#150 = DIRECTION ( 'NONE',  ( -4.275831445896958607E-31, -1.000000000000000000, -1.224646799147353207E-16 ) ) ;
#151 = DATE_AND_TIME ( #166, #193 ) ;
#152 = CALENDAR_DATE ( 2021, 6, 10 ) ;
#153 = PERSON_AND_ORGANIZATION ( #170, #26 ) ;
#154 = AXIS2_PLACEMENT_3D ( 'NONE', #44, #141, #137 ) ;
#155 = FACE_OUTER_BOUND ( 'NONE', #114, .T. ) ;
#156 = EDGE_LOOP ( 'NONE', ( #66 ) ) ;
#157 = CIRCLE ( 'NONE', #78, 0.5249999999999973577 ) ;
#158 = ORIENTED_EDGE ( 'NONE', *, *, #104, .F. ) ;
#159 = DIRECTION ( 'NONE',  ( -4.275831445896958607E-31, -1.000000000000000000, -1.224646799147353207E-16 ) ) ;
#160 = FACE_OUTER_BOUND ( 'NONE', #115, .T. ) ;
#161 = AXIS2_PLACEMENT_3D ( 'NONE', #3, #71, #134 ) ;
#162 = PLANE ( 'NONE',  #154 ) ;
#163 = CARTESIAN_POINT ( 'NONE',  ( 1.058299037697114879E-15, 0.5249999999999963585, 0.3031088913245549854 ) ) ;
#164 = LOCAL_TIME ( 10, 24, 31.00000000000000000, #188 ) ;
#165 = VERTEX_POINT ( 'NONE', #5 ) ;
#166 = CALENDAR_DATE ( 2021, 6, 10 ) ;
#167 = APPROVAL_PERSON_ORGANIZATION ( #72, #65, #112 ) ;
#168 = ADVANCED_FACE ( 'NONE', ( #54, #73 ), #179, .T. ) ;
#169 = APPLICATION_CONTEXT ( 'configuration controlled 3d designs of mechanical parts and assemblies' ) ;
#170 = PERSON ( 'UNSPECIFIED', 'UNSPECIFIED', 'UNSPECIFIED', ('UNSPECIFIED'), ('UNSPECIFIED'), ('UNSPECIFIED') ) ;
#171 = DIRECTION ( 'NONE',  ( -3.491481338843133355E-15, 1.224646799147353207E-16, -1.000000000000000000 ) ) ;
#172 = ORIENTED_EDGE ( 'NONE', *, *, #59, .F. ) ;
#173 = AXIS2_PLACEMENT_3D ( 'NONE', #121, #88, #106 ) ;
#174 = ORIENTED_EDGE ( 'NONE', *, *, #201, .F. ) ;
#175 = DIRECTION ( 'NONE',  ( -3.491481338843133355E-15, 1.224646799147353207E-16, -1.000000000000000000 ) ) ;
#176 = CC_DESIGN_DATE_AND_TIME_ASSIGNMENT ( #13, #96, ( #102 ) ) ;
#177 = CIRCLE ( 'NONE', #90, 0.5249999999999963585 ) ;
#178 = APPLICATION_PROTOCOL_DEFINITION ( 'international standard', 'config_control_design', 1994, #14 ) ;
#179 = CYLINDRICAL_SURFACE ( 'NONE', #190, 0.5249999999999988010 ) ;
#180 =( LENGTH_UNIT ( ) NAMED_UNIT ( * ) SI_UNIT ( .MILLI., .METRE. ) );
#181 = ADVANCED_FACE ( 'NONE', ( #196 ), #10, .F. ) ;
#182 = APPLICATION_PROTOCOL_DEFINITION ( 'international standard', 'config_control_design', 1994, #169 ) ;
#183 = COORDINATED_UNIVERSAL_TIME_OFFSET ( 1, 0, .AHEAD. ) ;
#184 = APPROVAL_DATE_TIME ( #151, #69 ) ;
#185 = APPROVAL ( #64, 'UNSPECIFIED' ) ;
#186 = CALENDAR_DATE ( 2021, 6, 10 ) ;
#187 = ADVANCED_FACE ( 'NONE', ( #149 ), #15, .T. ) ;
#188 = COORDINATED_UNIVERSAL_TIME_OFFSET ( 1, 0, .AHEAD. ) ;
#189 = CALENDAR_DATE ( 2021, 6, 10 ) ;
#190 = AXIS2_PLACEMENT_3D ( 'NONE', #195, #58, #56 ) ;
#191 = CC_DESIGN_APPROVAL ( #69, ( #138 ) ) ;
#192 = ORIENTED_EDGE ( 'NONE', *, *, #89, .T. ) ;
#193 = LOCAL_TIME ( 10, 24, 31.00000000000000000, #183 ) ;
#194 = CARTESIAN_POINT ( 'NONE',  ( 1.047444401652940007E-13, -3.673940397442059178E-15, 30.00000000000000000 ) ) ;
#195 = CARTESIAN_POINT ( 'NONE',  ( 0.0000000000000000000, 0.0000000000000000000, 0.0000000000000000000 ) ) ;
#196 = FACE_OUTER_BOUND ( 'NONE', #35, .T. ) ;
#197 = CC_DESIGN_APPROVAL ( #65, ( #102 ) ) ;
#198 = CARTESIAN_POINT ( 'NONE',  ( 2.793185071074506684E-14, 3.936869429487342009E-33, 8.000000000000000000 ) ) ;
#199 = CARTESIAN_POINT ( 'NONE',  ( 2.793185071074506684E-14, 0.5249999999999963585, 8.000000000000000000 ) ) ;
#200 = CC_DESIGN_DATE_AND_TIME_ASSIGNMENT ( #93, #48, ( #52 ) ) ;
#201 = EDGE_CURVE ( 'NONE', #74, #74, #177, .T. ) ;
#202 = MANIFOLD_SOLID_BREP ( 'Corps-Déplacer/Copier1[1]', #130 ) ;
#203 = CARTESIAN_POINT ( 'NONE',  ( 2.793185071074506684E-14, -9.797174393178825657E-16, 8.000000000000000000 ) ) ;
ENDSEC;
END-ISO-10303-21;
