ISO-10303-21;
HEADER;
FILE_DESCRIPTION (( 'STEP AP203' ),
    '1' );
FILE_NAME ('208.step',
    '2021-10-06T08:24:30',
    ( '' ),
    ( '' ),
    'SwSTEP 2.0',
    'SolidWorks 2019',
    '' );
FILE_SCHEMA (( 'CONFIG_CONTROL_DESIGN' ));
ENDSEC;

DATA;
#1 = CC_DESIGN_SECURITY_CLASSIFICATION ( #143, ( #8 ) ) ;
#2 = SECURITY_CLASSIFICATION_LEVEL ( 'unclassified' ) ;
#3 = MANIFOLD_SOLID_BREP ( 'Corps-Déplacer/Copier1[1]', #126 ) ;
#4 = CLOSED_SHELL ( 'NONE', ( #198, #86, #125 ) ) ;
#5 = LOCAL_TIME ( 10, 24, 30.00000000000000000, #60 ) ;
#6 = ORIENTED_EDGE ( 'NONE', *, *, #191, .F. ) ;
#7 = CC_DESIGN_PERSON_AND_ORGANIZATION_ASSIGNMENT ( #21, #79, ( #31 ) ) ;
#8 = PRODUCT_DEFINITION_FORMATION_WITH_SPECIFIED_SOURCE ( 'ANY', '', #45, .NOT_KNOWN. ) ;
#9 = CALENDAR_DATE ( 2021, 6, 10 ) ;
#10 = EDGE_LOOP ( 'NONE', ( #36 ) ) ;
#11 = EDGE_CURVE ( 'NONE', #121, #121, #25, .T. ) ;
#12 = FACE_OUTER_BOUND ( 'NONE', #10, .T. ) ;
#13 = DESIGN_CONTEXT ( 'detailed design', #81, 'design' ) ;
#14 = FACE_OUTER_BOUND ( 'NONE', #69, .T. ) ;
#15 = DIRECTION ( 'NONE',  ( 0.0000000000000000000, 1.000000000000000000, 0.0000000000000000000 ) ) ;
#16 = PLANE ( 'NONE',  #115 ) ;
#17 = AXIS2_PLACEMENT_3D ( 'NONE', #26, #164, #54 ) ;
#18 = CARTESIAN_POINT ( 'NONE',  ( 1.043952920314096810E-13, -3.661693929450586610E-15, 29.89999999999999858 ) ) ;
#19 = PERSON_AND_ORGANIZATION ( #58, #175 ) ;
#20 =( NAMED_UNIT ( * ) PLANE_ANGLE_UNIT ( ) SI_UNIT ( $, .RADIAN. ) );
#21 = PERSON_AND_ORGANIZATION ( #58, #175 ) ;
#22 = CALENDAR_DATE ( 2021, 6, 10 ) ;
#23 = DIRECTION ( 'NONE',  ( 0.0000000000000000000, 0.0000000000000000000, 1.000000000000000000 ) ) ;
#24 = EDGE_LOOP ( 'NONE', ( #117 ) ) ;
#25 = CIRCLE ( 'NONE', #133, 0.3750000000000000000 ) ;
#26 = CARTESIAN_POINT ( 'NONE',  ( 2.444036937190193349E-14, -8.572527594031473190E-16, 7.000000000000000000 ) ) ;
#27 = FACE_OUTER_BOUND ( 'NONE', #158, .T. ) ;
#28 = VERTEX_POINT ( 'NONE', #122 ) ;
#29 = CARTESIAN_POINT ( 'NONE',  ( 1.047444401652940007E-13, 2.812049592490927934E-33, 30.00000000000000000 ) ) ;
#30 = CARTESIAN_POINT ( 'NONE',  ( 9.575086531545317954E-16, 0.4749999999999963141, 0.2742413778650732992 ) ) ;
#31 = PRODUCT_DEFINITION ( 'UNKNOWN', '', #8, #13 ) ;
#32 = COORDINATED_UNIVERSAL_TIME_OFFSET ( 1, 0, .AHEAD. ) ;
#33 = APPROVAL_DATE_TIME ( #59, #112 ) ;
#34 = APPROVAL_PERSON_ORGANIZATION ( #62, #140, #128 ) ;
#35 = CC_DESIGN_PERSON_AND_ORGANIZATION_ASSIGNMENT ( #19, #183, ( #8 ) ) ;
#36 = ORIENTED_EDGE ( 'NONE', *, *, #66, .T. ) ;
#37 = AXIS2_PLACEMENT_3D ( 'NONE', #163, #56, #108 ) ;
#38 =( GEOMETRIC_REPRESENTATION_CONTEXT ( 3 ) GLOBAL_UNCERTAINTY_ASSIGNED_CONTEXT ( ( #70 ) ) GLOBAL_UNIT_ASSIGNED_CONTEXT ( ( #94, #20, #63 ) ) REPRESENTATION_CONTEXT ( 'NONE', 'WORKASPACE' ) );
#39 = ORIENTED_EDGE ( 'NONE', *, *, #130, .F. ) ;
#40 = APPROVAL_PERSON_ORGANIZATION ( #77, #90, #142 ) ;
#41 = CARTESIAN_POINT ( 'NONE',  ( 9.575086531545315982E-16, -3.358488255962217269E-17, 0.2742413778650732437 ) ) ;
#42 = DIRECTION ( 'NONE',  ( -4.054589356604738220E-31, -1.000000000000000000, -1.141265444721592386E-16 ) ) ;
#43 = VERTEX_POINT ( 'NONE', #107 ) ;
#44 = CYLINDRICAL_SURFACE ( 'NONE', #37, 0.4749999999999985900 ) ;
#45 = PRODUCT ( '208', '208', '', ( #65 ) ) ;
#46 = PERSON_AND_ORGANIZATION_ROLE ( 'classification_officer' ) ;
#47 = CIRCLE ( 'NONE', #68, 0.4749999999999999778 ) ;
#48 = DIRECTION ( 'NONE',  ( 1.000000000000000000, 0.0000000000000000000, 0.0000000000000000000 ) ) ;
#49 = PERSON_AND_ORGANIZATION ( #58, #175 ) ;
#50 = APPLICATION_CONTEXT ( 'configuration controlled 3d designs of mechanical parts and assemblies' ) ;
#51 = CC_DESIGN_APPROVAL ( #112, ( #8 ) ) ;
#52 = APPROVAL_DATE_TIME ( #102, #140 ) ;
#53 = FACE_OUTER_BOUND ( 'NONE', #97, .T. ) ;
#54 = DIRECTION ( 'NONE',  ( 0.0000000000000000000, 1.000000000000000000, 0.0000000000000000000 ) ) ;
#55 = DIRECTION ( 'NONE',  ( 4.275831445896958607E-31, 1.000000000000000000, 1.224646799147353207E-16 ) ) ;
#56 = DIRECTION ( 'NONE',  ( -3.491481338843133355E-15, 1.224646799147353207E-16, -1.000000000000000000 ) ) ;
#57 = DIRECTION ( 'NONE',  ( 3.491481338843133355E-15, -1.224646799147353207E-16, 1.000000000000000000 ) ) ;
#58 = PERSON ( 'UNSPECIFIED', 'UNSPECIFIED', 'UNSPECIFIED', ('UNSPECIFIED'), ('UNSPECIFIED'), ('UNSPECIFIED') ) ;
#59 = DATE_AND_TIME ( #92, #99 ) ;
#60 = COORDINATED_UNIVERSAL_TIME_OFFSET ( 1, 0, .AHEAD. ) ;
#61 = LOCAL_TIME ( 10, 24, 30.00000000000000000, #32 ) ;
#62 = PERSON_AND_ORGANIZATION ( #58, #175 ) ;
#63 =( NAMED_UNIT ( * ) SI_UNIT ( $, .STERADIAN. ) SOLID_ANGLE_UNIT ( ) );
#64 = CC_DESIGN_PERSON_AND_ORGANIZATION_ASSIGNMENT ( #169, #139, ( #45 ) ) ;
#65 = MECHANICAL_CONTEXT ( 'NONE', #50, 'mechanical' ) ;
#66 = EDGE_CURVE ( 'NONE', #43, #43, #47, .T. ) ;
#67 = ORIENTED_EDGE ( 'NONE', *, *, #191, .T. ) ;
#68 = AXIS2_PLACEMENT_3D ( 'NONE', #18, #105, #136 ) ;
#69 = EDGE_LOOP ( 'NONE', ( #145 ) ) ;
#70 = UNCERTAINTY_MEASURE_WITH_UNIT (LENGTH_MEASURE( 1.000000000000000082E-05 ), #94, 'distance_accuracy_value', 'NONE');
#71 = DIRECTION ( 'NONE',  ( 0.0000000000000000000, 1.000000000000000000, 0.0000000000000000000 ) ) ;
#72 = DIRECTION ( 'NONE',  ( 4.054589356604738220E-31, 1.000000000000000000, 1.141265444721592386E-16 ) ) ;
#73 = CARTESIAN_POINT ( 'NONE',  ( 2.444036937190193349E-14, -8.572527594031473190E-16, 7.000000000000000000 ) ) ;
#74 = VERTEX_POINT ( 'NONE', #30 ) ;
#75 = CARTESIAN_POINT ( 'NONE',  ( 2.444036937190193349E-14, 0.4749999999999963141, 7.000000000000000000 ) ) ;
#76 = APPROVAL_STATUS ( 'not_yet_approved' ) ;
#77 = PERSON_AND_ORGANIZATION ( #58, #175 ) ;
#78 = PRODUCT_RELATED_PRODUCT_CATEGORY ( 'detail', '', ( #45 ) ) ;
#79 = PERSON_AND_ORGANIZATION_ROLE ( 'creator' ) ;
#80 = DATE_TIME_ROLE ( 'creation_date' ) ;
#81 = APPLICATION_CONTEXT ( 'configuration controlled 3d designs of mechanical parts and assemblies' ) ;
#82 = ORIENTED_EDGE ( 'NONE', *, *, #11, .T. ) ;
#83 = SHAPE_DEFINITION_REPRESENTATION ( #101, #96 ) ;
#84 = AXIS2_PLACEMENT_3D ( 'NONE', #114, #23, #48 ) ;
#85 = FACE_OUTER_BOUND ( 'NONE', #189, .T. ) ;
#86 = ADVANCED_FACE ( 'NONE', ( #27, #85 ), #89, .T. ) ;
#87 = CC_DESIGN_APPROVAL ( #140, ( #143 ) ) ;
#88 = PLANE ( 'NONE',  #185 ) ;
#89 = CYLINDRICAL_SURFACE ( 'NONE', #174, 0.4749999999999968137 ) ;
#90 = APPROVAL ( #171, 'UNSPECIFIED' ) ;
#91 = DIRECTION ( 'NONE',  ( -3.491481338843133355E-15, 1.224646799147353207E-16, -1.000000000000000000 ) ) ;
#92 = CALENDAR_DATE ( 2021, 6, 10 ) ;
#93 = COORDINATED_UNIVERSAL_TIME_OFFSET ( 1, 0, .AHEAD. ) ;
#94 =( LENGTH_UNIT ( ) NAMED_UNIT ( * ) SI_UNIT ( .MILLI., .METRE. ) );
#95 = DATE_AND_TIME ( #22, #61 ) ;
#96 = ADVANCED_BREP_SHAPE_REPRESENTATION ( '208', ( #3, #203, #84 ), #38 ) ;
#97 = EDGE_LOOP ( 'NONE', ( #190 ) ) ;
#98 = AXIS2_PLACEMENT_3D ( 'NONE', #106, #182, #15 ) ;
#99 = LOCAL_TIME ( 10, 24, 30.00000000000000000, #129 ) ;
#100 = ORIENTED_EDGE ( 'NONE', *, *, #66, .F. ) ;
#101 = PRODUCT_DEFINITION_SHAPE ( 'NONE', 'NONE',  #31 ) ;
#102 = DATE_AND_TIME ( #9, #170 ) ;
#103 = EDGE_LOOP ( 'NONE', ( #100 ) ) ;
#104 = CIRCLE ( 'NONE', #17, 0.4749999999999972022 ) ;
#105 = DIRECTION ( 'NONE',  ( -3.491481338843133355E-15, 1.224646799147353207E-16, -1.000000000000000000 ) ) ;
#106 = CARTESIAN_POINT ( 'NONE',  ( 1.047444401652940007E-13, -3.673940397442059178E-15, 30.00000000000000000 ) ) ;
#107 = CARTESIAN_POINT ( 'NONE',  ( 1.043952920314096810E-13, 0.4749999999999963141, 29.89999999999999858 ) ) ;
#108 = DIRECTION ( 'NONE',  ( 4.275831445896958607E-31, 1.000000000000000000, 1.224646799147353454E-16 ) ) ;
#109 = CALENDAR_DATE ( 2021, 6, 10 ) ;
#110 = CIRCLE ( 'NONE', #193, 0.4749999999999963696 ) ;
#111 = DATE_AND_TIME ( #186, #152 ) ;
#112 = APPROVAL ( #144, 'UNSPECIFIED' ) ;
#113 = APPROVAL_ROLE ( '' ) ;
#114 = CARTESIAN_POINT ( 'NONE',  ( 0.0000000000000000000, 0.0000000000000000000, 0.0000000000000000000 ) ) ;
#115 = AXIS2_PLACEMENT_3D ( 'NONE', #137, #57, #160 ) ;
#116 = EDGE_CURVE ( 'NONE', #28, #28, #104, .T. ) ;
#117 = ORIENTED_EDGE ( 'NONE', *, *, #11, .F. ) ;
#118 = CONICAL_SURFACE ( 'NONE', #127, 0.4749999999999963696, 1.047197551196592746 ) ;
#119 = DIRECTION ( 'NONE',  ( 0.0000000000000000000, 1.000000000000000000, 0.0000000000000000000 ) ) ;
#120 = CARTESIAN_POINT ( 'NONE',  ( 9.575086531545315982E-16, -3.358488255962217269E-17, 0.2742413778650732437 ) ) ;
#121 = VERTEX_POINT ( 'NONE', #180 ) ;
#122 = CARTESIAN_POINT ( 'NONE',  ( 2.444036937190193349E-14, 0.4749999999999963141, 7.000000000000000000 ) ) ;
#123 = FACE_OUTER_BOUND ( 'NONE', #103, .T. ) ;
#124 = PERSON_AND_ORGANIZATION ( #58, #175 ) ;
#125 = ADVANCED_FACE ( 'NONE', ( #178 ), #148, .T. ) ;
#126 = CLOSED_SHELL ( 'NONE', ( #132, #172, #159, #201 ) ) ;
#127 = AXIS2_PLACEMENT_3D ( 'NONE', #120, #151, #42 ) ;
#128 = APPROVAL_ROLE ( '' ) ;
#129 = COORDINATED_UNIVERSAL_TIME_OFFSET ( 1, 0, .AHEAD. ) ;
#130 = EDGE_CURVE ( 'NONE', #74, #74, #110, .T. ) ;
#131 = CC_DESIGN_PERSON_AND_ORGANIZATION_ASSIGNMENT ( #49, #46, ( #143 ) ) ;
#132 = ADVANCED_FACE ( 'NONE', ( #14 ), #16, .F. ) ;
#133 = AXIS2_PLACEMENT_3D ( 'NONE', #195, #192, #119 ) ;
#134 = APPROVAL_PERSON_ORGANIZATION ( #141, #112, #113 ) ;
#135 = DIRECTION ( 'NONE',  ( 4.275831445896958607E-31, 1.000000000000000000, 1.224646799147352961E-16 ) ) ;
#136 = DIRECTION ( 'NONE',  ( 0.0000000000000000000, 1.000000000000000000, 0.0000000000000000000 ) ) ;
#137 = CARTESIAN_POINT ( 'NONE',  ( 2.444036937190193349E-14, 3.561929483821878291E-33, 7.000000000000000000 ) ) ;
#138 = VERTEX_POINT ( 'NONE', #75 ) ;
#139 = PERSON_AND_ORGANIZATION_ROLE ( 'design_owner' ) ;
#140 = APPROVAL ( #76, 'UNSPECIFIED' ) ;
#141 = PERSON_AND_ORGANIZATION ( #58, #175 ) ;
#142 = APPROVAL_ROLE ( '' ) ;
#143 = SECURITY_CLASSIFICATION ( '', '', #2 ) ;
#144 = APPROVAL_STATUS ( 'not_yet_approved' ) ;
#145 = ORIENTED_EDGE ( 'NONE', *, *, #116, .T. ) ;
#146 = DIRECTION ( 'NONE',  ( 3.491481338843133355E-15, -1.224646799147353207E-16, 1.000000000000000000 ) ) ;
#147 = AXIS2_PLACEMENT_3D ( 'NONE', #73, #181, #71 ) ;
#148 = PLANE ( 'NONE',  #165 ) ;
#149 = FACE_BOUND ( 'NONE', #173, .T. ) ;
#150 = DIRECTION ( 'NONE',  ( -4.275831445896958607E-31, -1.000000000000000000, -1.224646799147353207E-16 ) ) ;
#151 = DIRECTION ( 'NONE',  ( 3.491481338843133355E-15, -1.224646799147353207E-16, 1.000000000000000000 ) ) ;
#152 = LOCAL_TIME ( 10, 24, 30.00000000000000000, #155 ) ;
#153 = DATE_TIME_ROLE ( 'classification_date' ) ;
#154 = APPROVAL_DATE_TIME ( #111, #90 ) ;
#155 = COORDINATED_UNIVERSAL_TIME_OFFSET ( 1, 0, .AHEAD. ) ;
#156 = CIRCLE ( 'NONE', #147, 0.4749999999999972022 ) ;
#157 = EDGE_LOOP ( 'NONE', ( #177 ) ) ;
#158 = EDGE_LOOP ( 'NONE', ( #39 ) ) ;
#159 = ADVANCED_FACE ( 'NONE', ( #123, #149 ), #184, .T. ) ;
#160 = DIRECTION ( 'NONE',  ( -4.275831445896958607E-31, -1.000000000000000000, -1.224646799147353207E-16 ) ) ;
#161 = FACE_OUTER_BOUND ( 'NONE', #24, .T. ) ;
#162 = CARTESIAN_POINT ( 'NONE',  ( 2.444036937190193349E-14, 3.561929483821878291E-33, 7.000000000000000000 ) ) ;
#163 = CARTESIAN_POINT ( 'NONE',  ( 0.0000000000000000000, 0.0000000000000000000, 0.0000000000000000000 ) ) ;
#164 = DIRECTION ( 'NONE',  ( -3.491481338843133355E-15, 1.224646799147353207E-16, -1.000000000000000000 ) ) ;
#165 = AXIS2_PLACEMENT_3D ( 'NONE', #162, #146, #150 ) ;
#166 = DATE_AND_TIME ( #109, #5 ) ;
#167 = PERSON_AND_ORGANIZATION_ROLE ( 'creator' ) ;
#168 = CC_DESIGN_DATE_AND_TIME_ASSIGNMENT ( #166, #153, ( #143 ) ) ;
#169 = PERSON_AND_ORGANIZATION ( #58, #175 ) ;
#170 = LOCAL_TIME ( 10, 24, 30.00000000000000000, #93 ) ;
#171 = APPROVAL_STATUS ( 'not_yet_approved' ) ;
#172 = ADVANCED_FACE ( 'NONE', ( #179, #12 ), #44, .T. ) ;
#173 = EDGE_LOOP ( 'NONE', ( #82 ) ) ;
#174 = AXIS2_PLACEMENT_3D ( 'NONE', #200, #197, #135 ) ;
#175 = ORGANIZATION ( 'UNSPECIFIED', 'UNSPECIFIED', '' ) ;
#176 = EDGE_LOOP ( 'NONE', ( #6 ) ) ;
#177 = ORIENTED_EDGE ( 'NONE', *, *, #116, .F. ) ;
#178 = FACE_OUTER_BOUND ( 'NONE', #176, .T. ) ;
#179 = FACE_OUTER_BOUND ( 'NONE', #157, .T. ) ;
#180 = CARTESIAN_POINT ( 'NONE',  ( 1.047444401652940007E-13, 0.3749999999999963363, 30.00000000000000000 ) ) ;
#181 = DIRECTION ( 'NONE',  ( -3.491481338843133355E-15, 1.224646799147353207E-16, -1.000000000000000000 ) ) ;
#182 = DIRECTION ( 'NONE',  ( -3.491481338843133355E-15, 1.224646799147353207E-16, -1.000000000000000000 ) ) ;
#183 = PERSON_AND_ORGANIZATION_ROLE ( 'design_supplier' ) ;
#184 = CONICAL_SURFACE ( 'NONE', #98, 0.3750000000000000000, 0.7853981633974512766 ) ;
#185 = AXIS2_PLACEMENT_3D ( 'NONE', #29, #196, #55 ) ;
#186 = CALENDAR_DATE ( 2021, 6, 10 ) ;
#187 = CC_DESIGN_PERSON_AND_ORGANIZATION_ASSIGNMENT ( #124, #167, ( #8 ) ) ;
#188 = APPLICATION_PROTOCOL_DEFINITION ( 'international standard', 'config_control_design', 1994, #50 ) ;
#189 = EDGE_LOOP ( 'NONE', ( #67 ) ) ;
#190 = ORIENTED_EDGE ( 'NONE', *, *, #130, .T. ) ;
#191 = EDGE_CURVE ( 'NONE', #138, #138, #156, .T. ) ;
#192 = DIRECTION ( 'NONE',  ( -3.491481338843133355E-15, 1.224646799147353207E-16, -1.000000000000000000 ) ) ;
#193 = AXIS2_PLACEMENT_3D ( 'NONE', #41, #91, #72 ) ;
#194 = CC_DESIGN_DATE_AND_TIME_ASSIGNMENT ( #95, #80, ( #31 ) ) ;
#195 = CARTESIAN_POINT ( 'NONE',  ( 1.047444401652940007E-13, -3.673940397442059178E-15, 30.00000000000000000 ) ) ;
#196 = DIRECTION ( 'NONE',  ( -3.491481338843133355E-15, 1.224646799147353207E-16, -1.000000000000000000 ) ) ;
#197 = DIRECTION ( 'NONE',  ( -3.491481338843133355E-15, 1.224646799147353207E-16, -1.000000000000000000 ) ) ;
#198 = ADVANCED_FACE ( 'NONE', ( #53 ), #118, .T. ) ;
#199 = CC_DESIGN_APPROVAL ( #90, ( #31 ) ) ;
#200 = CARTESIAN_POINT ( 'NONE',  ( 0.0000000000000000000, 0.0000000000000000000, 0.0000000000000000000 ) ) ;
#201 = ADVANCED_FACE ( 'NONE', ( #161 ), #88, .F. ) ;
#202 = APPLICATION_PROTOCOL_DEFINITION ( 'international standard', 'config_control_design', 1994, #81 ) ;
#203 = MANIFOLD_SOLID_BREP ( 'Corps-Déplacer/Copier1[2]', #4 ) ;
ENDSEC;
END-ISO-10303-21;
